Slayer - Richard Hung Himself tab

Band- Slayer
Song- Richard Hung Himself

Tuning Eb


 FILL 1 INTRO

|--------||--------||--------||-2---3--||---2----||--------|
RIFF 1 VERSE x4
|---------------------------------||---------------------------------||---------------------------------||---------------------------------||-4---4---7---7---6-6-6---2-2-2-2-||-2---2---5---5---4-4-4---0-0-0-0-| . . . .
RIFF 2 CHORUS x1
|-----------------------------------------||-----------------------------------------||-----------------------------------------||-----------------------------------------||-4-4-4---2-2-2-2-4-4-----4-4-----4-4-----||-2-2-2---0-0-0-0-2-2-----2-2-----2-2-----| . . . .
|-----------------------------------------||-----------------------------------------||-----------------------------------------||-----------------------------------------||-2-2-2-2---2-3---4-------4-4-----4-4-----||-0-0-0-0---0-1-0-2-------2-2-----2-2-----| . . . . . . .
|-----------------------------------------||-----------------------------------------||-----------------------------------------||-----------------------------------------||-4-4-4---2-2-2-2-4-4-----4-4-----4-4-----||-2-2-2---0-0-0-0-2-2-----2-2-----2-2-----| . . . .
|-------------------------------------------------||-------------------------------------------------||-------------------------------------------------||-------------------------------------------------||-2-2-2-2---2-3---4-4-3-3-2-2-2-2-4-4-3-3-2-2-2-2-||-0-0-0-0---0-1-0-2-2-1-1-0-0-0-0-2-2-1-1-0-0-0-0-| . . . . . . .
RIFF 1 VERSE x4 RIFF 2 CHORUS x1 RIFF 1 VERSE x1 RIFF 3 BREAK x4
|--------------------||--------------------||--------------------||-4--4--4--4--4------||-2--2--2--2--2------||--------------------| x
RIFF 4 INTERLUDE x2
|-------------------------||-------------------------||-------------------------||-------------------------||-------------------------||-2--1--0--2--1--0--2-1-0-| . . . . . . . . .
RIFF 3 BREAK x4 RIFF 5 INTERLUDE x1
|BOTH|---------------------------------||---------------------------------||---------------------------------||---------------------------------||---------------------------------||-2---2---1---0---2---2---1---0---|
|KING|---------------------------------||---------------------------------||---------------------------------||---------------------------------||-2---2---1---0---2---2---1---0---||---------------------------------|
| |
|HANNEMAN|---------------------------------||---------------------------------||---------------------------------||---------------------------------||---------------------------------||-2---2---1---0---2---2---1---0---|
|BOTH x2|-------------------------||-------------------------||-------------------------||-------------------------||-4--4--3--2--4--4--3--2--||-2--2--1--0--2--2--1--0--|
RIFF 1A VERSE x4
|---------------------------------||---------------------------------||---------------------------------||---------------------------------||-4-4-4-4-7-7-7-7-6-6-6-6-2-2-2-2-||-2-2-2-2-5-5-5-5-4-4-4-4-0-0-0-0-| . . . . . . . . . . . . . . . .
RIFF 2A CHORUS x1
|-----------------------------------------||-----------------------------------------||-----------------------------------------||-----------------------------------------||-4-4-4---2-2-2-2-4-4-----4-4-----4-4-----||-2-2-2---0-0-0-0-2-2-----2-2-----2-2-----| . . . .
|-----------------------------------------||-----------------------------------------||-----------------------------------------||-----------------------------------------||-2-2-2-2---2-3---4-------4-4-----4-4-----||-0-0-0-0---0-1-0-2-------2-2-----2-2-----| . . . . . . .
|-----------------------------------------||-----------------------------------------||-----------------------------------------||-----------------------------------------||-4-4-4---2-2-2-2-4-4-----4-4-----4-4-----||-2-2-2---0-0-0-0-2-2-----2-2-----2-2-----| . . . .
|-----------------||-----------------||-----------------||-----------------||-2-2-2-2---2-3---||-0-0-0-0---0-1-0-| . . . . . . .
RIFF 6 BREAK x8
|-----------------------------------||-----------------------------------||-----------------------------------||-11111010-9-9-9-9-11111010-9-9-9-9-||--9-9-8-8-7-7-7-7--9-9-8-8-7-7-7-7-||-----------------------------------|
FILL 2
|KING|--------------------------------------------------------------||--------------------------------------------------------------||--------------------------------------------------------------||-11-----------------------------------------------------------||--9------------------------------//9b^^^^--------x\\\\\\\\\\--||--------------------------------------------------------------|
| |
|HANNEMAN|--------------------------------------------------------------||--------------------------------------------------------------||--------------------------------------------------------------||-11------------------------------//9b^^^^---------------------||--9-----------------------------------------------------------||---------------------------------------------------x\\\\\\\\--|
RIFF 1A VERSE x4
LEAD OVER VERSE HANNEMAN WITH OCTAVE HIGHER AND HEAVY REVERB N.H. BAR N.H. BAR|-----------------------------------------------------------------||-----------------------------------------------------------------||---------------------------------7////\////\//\\///\\///\\/\/\\--||-7////\////\//\\///\\///\\/\/\\----------------------------------||-----------------------------------------------------------------||-----------------------------------------------------------------|
N.H. BAR N.H. N.H. BAR|-------------------------------------------------||--7/////\\////\\/\/\\----------------------------||-(7)////\\////\\/\/\\-------5////\/\/\\////\/\\--||-----------------------5-------------------------||-------------------------------------------------||-------------------------------------------------|
RIFF 1B VERSE x4
|KING|---------------------------------||---------------------------------||---------------------------------||---------------------------------||-4-4-4-4-7-7-7-7-6-6-6-6-2-2-2-2-||-2-2-2-2-5-5-5-5-4-4-4-4-0-0-0-0-|| . . . . . . . . . . . . . . . .
|
|HANNEMAN|WAH_____________________________|---------------------------------||---------------------------------||---------------------------------||111111111414141413131313-9-9-9-9-||-9-9-9-91212121211111111-7-7-7-7-||---------------------------------|
FILL 3 END
|KING|---------------------------------------------------------------------||-------------------//18b^^--18b^^---18b^^^^\\\\\\\\-18b^^\\----19----||---------------------------------------------------------------------||-11------------------------------------------------------------------||--9------------------------------------------------------------------||---------------------------------------------------------------------|| x
|
|HANNEMAN BAR N.H. BAR|---------------------------------------------------------------------||---------------------------------------------------------------------||---------------------------------------------------------------------||-11----------------0\\\\h7///\/\/\/\/\/\/\/\\\\\\\\///\\\\\----------||--9------------------------------------------------------------------||---------------------------------------------------------------------|
Tap to rate this tab
 
# A B C D E F G H I J K L M N O P Q R S T U V W X Y Z