With Ears To See And Eyes To Hear tab ver. 2 with lyrics by Sleeping With Sirens - Easy chords and tabs for guitar

Sleeping With Sirens – With Ears To See And Eyes To Hear tab ver. 2

this is basically a text version of a file given to me by a friend with a chord changed
in the chorus that i saw them use live. Im not sure if its just an alteration by Jack,
but it sounds close either way.

guitar 1 (rhythm)

D#|------------------------------------------------------------------------|A#|---------------------------------------------------------------------6b-|F#|---------------------------------------------------------------------9b-|C#|--8-----0-0-0----8-----0-0-0----8-----0--------------------0------------|G#|--8-----0-0-0----8-----0-0-0----8-----0.-------------------0------------|C#|--8-----0-0-0----8-----0-0-0----8-----0--------------------0------------|
D#|------------------------------------------------------------------------|A#|---------------------------------------------------------------------6b-|F#|---------------------------------------------------------------------9b-|C#|--8-----0-0-0----8-----0-0-0----8-----0--------------------0------------|G#|--8-----0-0-0----8-----0-0-0----8-----0.-------------------0------------|C#|--8-----0-0-0----8-----0-0-0----8-----0--------------------0------------|
D#|------------------------------------------------------------------------|A#|---------------------------------------------------------------------6b-|F#|---------------------------------------------------------------------9b-|C#|--8-----0-0-0----8-----0-0-0----8-----0--------------------0------------|G#|--8-----0-0-0----8-----0-0-0----8-----0.-------------------0------------|C#|--8-----0-0-0----8-----0-0-0----8-----0--------------------0------------|
D#|------------------------------------------------------------------------|A#|---------------------------------------------------------------------6b-|F#|---------------------------------------------------------------------9b-|C#|--8-----0-0-0----8-----0-0-0----8-----0--------------------0------------|G#|--8-----0-0-0----8-----0-0-0----8-----0.-------------------0------------|C#|--8-----0-0-0----8-----0-0-0----8-----0--------------------0------------|
VERSE 1
----------------------------|----------------------------|--6--6--6--6--6--6--6--6----|--6--6--6--6--6--6--6--6----|--7--7--7--7--7--7--7--7----|--7--7--7--7--7--7--7--7----|--7--7--7--7--7--7--7--7----|--7--7--7--7--7--7--7--7----|--5--5--5--5--5--5--5--5----|--5--5--5--5--5--5--5--5----|----------------------------|----------------------------|
----------------------------|----------------------------|--5--5--5--5--5--5--5--5----|--5--5--5--5--5--5--5--5----|--5--5--5--5--5--5--5--5----|--5--5--5--5--5--5--5--5----|--5--5--5--5--5--5--5--5----|--5--5--5--5--5--5--5--5----|--3--3--3--3--3--3--3--3----|--3--3--3--3--3--3--3--3----|----------------------------|----------------------------|
(True Friends lie Underneath...)
----------------------------|----------------------------|--6--6--6--6--6--6--6--6----|--6--6--6--6--6--6--6--6----|--7--7--7--7--7--7--7--7----|--7--7--7--7--7--7--7--7----|--7--7--7--7--7--7--7--7----|--7--7--7--7--7--7--7--7----|--5--5--5--5--5--5--5--5----|--5--5--5--5--5--5--5--5----|----------------------------|----------------------------|
(Whose witty words i don't believe...)
----------------------------|----------------------------|--5--5--5--5--5--5--5--5----|--5--5--5--5--5--5--5--5----|--5--5--5--5--5--5--5--5----|--5--5--5--5--5--5--5--5----|--5--5--5--5--5--5--5--5----|--5--5--5--5--5--5--5--5----|--3--3--3--3--3--3--3--3----|--3--3--3--3--3--3--3--3----|----------------------------|----------------------------|
(I cant believe a damn thing they say...)
----------------------------|----------------------------|--3--3--3--3--3--3--3--3----|--3--3--3--3--3--3--3--3----|--3--3--3--3--3--3--3--3----|--3--3--3--3--3--3--3--3----|--3--3--3--3--3--3--3--3----|--3--3--3--3--3--3--3--3----|--1--1--1--1--1--1--1--1----|--1--1--1--1--1--1--1--1----|----------------------------|----------------------------|(Anymore...)
----------------------------|----------------------------|--3--3--3--3--3--3--3--3----|--2--2--2--2--2--2--2--2----|--3--3--3--3--3--3--3--3----|--2--2--2--2--2--2--2--2----|--3--3--3--3--3--3--3--3----|--2--2--2--2--2--2--2--2----|--1--1--1--1--1--1--1--1----|--0--0--0--0--0--0--0--0----|----------------------------|----------------------------|
(LIE! LIAR YOU'LL PAY FOR YOUR SINS!)pm-------------------------------------------------|---------------------------------------------------|-----------------------------------------6B--------|-----------------------------------------9B--------|--0-0-0-0-0----------0-0----------0----------------|--0-0-0-0-0----------0-0----------0----------------|--0-0-0-0-0----------0-0----------0----------------|X4
CHORUS (So tell me, how does it feel...)
----------------------------|----------------------------|--5--5--5--5--5--5--5--5----|--7--7--7--7--7--7--7--7----|--8--8--8--8--8--8--8--8----|--8--8--8--8--8--8--8--8----|
(how does it feel to be like you?)----------------------------|----------------------------|----------------------------|----------------------------|----------------------------|----------------------------|-----------7--7--7--3--3----|--3--2--2--2--2--2--2--2----|--3--3--3-------------------|----------------------------|----------------------------|----------------------------|(i think your mouth should be quiet...)figure out rhythm
-------------------------------------------|-------------------------------------------|-------------------------------------------|--0-0-0-0-0-0-0-0-0------------------------|--0-0-0-0-0-0-0-0-0------------------------|--0-0-0-0-0-0-0-0-0------------------------| chorus x2
VERSE 2:
----------------------------|----------------------------|----------------------------|----------------------------|-----------13s---15---------|- 11----11------------------|----------------------------|-----14---------------------|--12-14-15------------------|-----------15L---------15---|----------------------------|----------------------------|x 4
---------------------------------------------------|---------------------------------------------------|---------------------------------------------------|--12-12------12-12------12-12---------12-12--------|--12-12------12-12------12-12---------12-12--------|--12-12------12-12------12-12---------12-12--------| x2
--------------------------------------------|--------------------------------------------|--------------------------------------------|--8-8-------8-8-------8-8-------8-8---------|--8-8-------8-8-------8-8-------8-8---------|--8-8-------8-8-------8-8-------8-8---------|
--------------------------------------------------|--------------------------------------------------|--------------------------------------------------|--------10---10-10------10-10-10-10-10-10-10-10---|--------10---10-10------10-10-10-10-10-10-10-10---|--------10---10-10------10-10-10-10-10-10-10-10---|
----------------------------|----------------------------|----------------------------|----------------------------|-----------13s---15---------|- 11----11------------------|----------------------------|-----14---------------------|--12-14-15------------------|-----------15L---------15---|----------------------------|----------------------------|x 6
CHORUS (So tell me, how does it feel...)
----------------------------|----------------------------|--5--5--5--5--5--5--5--5----|--7--7--7--7--7--7--7--7----|--8--8--8--8--8--8--8--8----|--8--8--8--8--8--8--8--8----|
(how does it feel to feel like you?)----------------------------|----------------------------|----------------------------|----------------------------|----------------------------|----------------------------|-----------7--7--7--3--3----|--3--2--2--2--2--2--2--2----|--3--3--3-------------------|----------------------------|----------------------------|----------------------------|(i think your mouth should be quiet...)figure out rhythm
-------------------------------------------|-------------------------------------------|-------------------------------------------|--0-0-0-0-0-0-0-0-0------------------------|--0-0-0-0-0-0-0-0-0------------------------|--0-0-0-0-0-0-0-0-0------------------------| chorus x2
BRIDGE
(Sometimes things are better left unsaid)----------------------------|----------------------------|--10-10-10-10-10-10-10-10---|--10-10-10-10-10-10-10-10---|--10-10-10-10-10-10-10-10---|--10-10-10-10-10-10-10-10---|--7--7--7--7--7--7--7--7----|--7--7--7--7--7--7--7--7----|--8--8--8--8--8--8--8--8----|--8--8--8--8--8--8--8--8----|--7--7--7--7--7--7--7--7----|--7--7--7--7--7--7--7--7----|
--5--5--5--5--5--5--5--5----|--5--5--5--5--5--5--5--5----|--5--5--5--5--5--5--5--5----|--5--5--5--5--5--5--5--5----|--7--7--7--7--7--7--7--7----|--7--7--7--7--7--7--7--7----|--5--5--5--5--5--5--5--5----|--5--5--5--5--5--5--5--5----|--5--5--5--5--5--5--5--5----|--5--5--5--5--5--5--5--5----|--5--5--5--5--5--5--5--5----|--5--5--5--5--5--5--5--5----|
--5--5--5--5--5--5--5--5----|--5--5--5--5--5--5--5--5----|--6--6--6--6--6--6--6--6----|--6--6--6--6--6--6--6--6----|--7--7--7--7--7--7--7--7----|--7--7--7--7--7--7--7--7----|--7--7--7--7--7--7--7--7----|--7--7--7--7--7--7--7--7----|--5--5--5--5--5--5--5--5----|--5--5--5--5--5--5--5--5----|----------------------------|----------------------------|
--5--5--5--5--5--5--5--5----|--5--5--5--5--5--5--5--5----|--5--5--5--5--5--5--5--5----|--5--5--5--5--5--5--5--5----|--5--5--5--5--5--5--5--5----|--5--5--5--5--5--5--5--5----|--5--5--5--5--5--5--5--5----|--5--5--5--5--5--5--5--5----|--3--3--3--3--3--3--3--3----|--3--3--3--3--3--3--3--3----|----------------------------|----------------------------|
----------------------------|----------------------------|--10-10-10-10-10-10-10-10---|--10-10-10-10-10-10-10-10---|--10-10-10-10-10-10-10-10---|--10-10-10-10-10-10-10-10---|--7--7--7--7--7--7--7--7----|--7--7--7--7--7--7--7--7----|--8--8--8--8--8--8--8--8----|--8--8--8--8--8--8--8--8----|--7--7--7--7--7--7--7--7----|--7--7--7--7--7--7--7--7----|
--5--5--5--5--5--5--5--5----|--5--5--5--5--5--5--5--5----|--5--5--5--5--5--5--5--5----|--5--5--5--5--5--5--5--5----|--7--7--7--7--7--7--7--7----|--7--7--7--7--7--7--7--7----|--5--5--5--5--5--5--5--5----|--5--5--5--5--5--5--5--5----|--5--5--5--5--5--5--5--5----|--5--5--5--5--5--5--5--5----|--5--5--5--5--5--5--5--5----|--5--5--5--5--5--5--5--5----|
--5--5--5--5--5--5--5--5----|--5--5--5--5--5--5--5--5----|--6--6--6--6--6--6--6--6----|--6--6--6--6--6--6--6--6----|--7--7--7--7--7--7--7--7----|--7--7--7--7--7--7--7--7----|--7--7--7--7--7--7--7--7----|--7--7--7--7--7--7--7--7----|--5--5--5--5--5--5--5--5----|--5--5--5--5--5--5--5--5----|----------------------------|----------------------------|
--5--5--5--5--5--5--5--5----|--5--5--5--5--5--5--5--5----|--5--5--5--5--5--5--5--5----|--5--5--5--5--5--5--5--5----|--5--5--5--5--5--5--5--5----|--5--5--5--5--5--5--5--5----|--5--5--5--5--5--5--5--5----|--5--5--5--5--5--5--5--5----|--3--3--3--3--3--3--3--3----|--3--3--3--3--3--3--3--3----|----------------------------|----------------------------|
----------------------------|----------------------------|--10-10-10-10-10-10-10-10---|--10-10-10-10-10-10-10-10---|--10-10-10-10-10-10-10-10---|--10-10-10-10-10-10-10-10---|--7--7--7--7--7--7--7--7----|--7--7--7--7--7--7--7--7----|--8--8--8--8--8--8--8--8----|--8--8--8--8--8--8--8--8----|--7--7--7--7--7--7--7--7----|--7--7--7--7--7--7--7--7----|
--5--5--5--5--5--5--5--5----|--5--5--5--5--5--5--5--5----|--5--5--5--5--5--5--5--5----|--5--5--5--5--5--5--5--5----|--7--7--7--7--7--7--7--7----|--7--7--7--7--7--7--7--7----|--5--5--5--5--5--5--5--5----|--5--5--5--5--5--5--5--5----|--5--5--5--5--5--5--5--5----|--5--5--5--5--5--5--5--5----|--5--5--5--5--5--5--5--5----|--5--5--5--5--5--5--5--5----|
--5--5--5--5--5--5--5--5----|--5--5--5--5--5--5--5--5----|--6--6--6--6--6--6--6--6----|--6--6--6--6--6--6--6--6----|--7--7--7--7--7--7--7--7----|--7--7--7--7--7--7--7--7----|--7--7--7--7--7--7--7--7----|--7--7--7--7--7--7--7--7----|--5--5--5--5--5--5--5--5----|--5--5--5--5--5--5--5--5----|----------------------------|----------------------------|
--5--5--5--5--5--5--5--5----|--5--5--5--5--5--5--5--5----|--5--5--5--5--5--5--5--5----|--5--5--5--5--5--5--5--5----|--5--5--5--5--5--5--5--5----|--5--5--5--5--5--5--5--5----|--5--5--5--5--5--5--5--5----|--5--5--5--5--5--5--5--5----|--3--3--3--3--3--3--3--3----|--3--3--3--3--3--3--3--3----|----------------------------|----------------------------|
----------------------------|----------------------------|--10-10-10-10-10-10-10-10---|--10-10-10-10-10-10-10-10---|--10-10-10-10-10-10-10-10---|--10-10-10-10-10-10-10-10---|--7--7--7--7--7--7--7--7----|--7--7--7--7--7--7--7--7----|--8--8--8--8--8--8--8--8----|--8--8--8--8--8--8--8--8----|--7--7--7--7--7--7--7--7----|--7--7--7--7--7--7--7--7----|
--5--5--5--5--5--5--5--5----|--5--5--5--5--5--5--5--5----|--5--5--5--5--5--5--5--5----|--5--5--5--5--5--5--5--5----|--7--7--7--7--7--7--7--7----|--7--7--7--7--7--7--7--7----|--5--5--5--5--5--5--5--5----|--5--5--5--5--5--5--5--5----|--5--5--5--5--5--5--5--5----|--5--5--5--5--5--5--5--5----|--5--5--5--5--5--5--5--5----|--5--5--5--5--5--5--5--5----|
--5--5--5--5--5--5--5--5----|--5--5--5--5--5--5--5--5----|--6--6--6--6--6--6--6--6----|--6--6--6--6--6--6--6--6----|--7--7--7--7--7--7--7--7----|--7--7--7--7--7--7--7--7----|--7--7--7--7--7--7--7--7----|--7--7--7--7--7--7--7--7----|--5--5--5--5--5--5--5--5----|--5--5--5--5--5--5--5--5----|----------------------------|----------------------------|
--5--5--5--5--5--5--5--5----|--5--5--5--5--5--5--5--5----|-------|-------|--5--5--5--5--5--5--5--5----|--5--5--5--5--5--5--5--5----|-------|-------|--5--5--5--5--5--5--5--5----|--5--5--5--5--5--5--5--5----|-------|-------|--5--5--5--5--5--5--5--5----|--5--5--5--5--5--5--5--5----|-------|-------|--3--3--3--3--3--3--3--3----|--3--3--3--3--3--3--3--3----|-------|-------|----------------------------|----------------------------|-------|-------|
(I KNOW...)
-------------------------------------------------|-------------------------------------------------|-------------------------------------------------|--12-12------12-12------12-12------12-12-12-12---|--12-12------12-12------12-12------12-12-12-12---|--12-12------12-12------12-12------12-12-12-12---|
-------------------------------------------------|-------------------------------------------------|-------------------------------------------------|--------12-12-12-12------12-12------12-12--------|--------12-12-12-12------12-12------12-12--------|--------12-12-12-12------12-12------12-12--------|
---------------------------------------|---------------------------------------|---------------------------------------|--0-0-0----0-0-0----0-0-0----0-0-0-0---|--0-0-0----0-0-0----0-0-0----0-0-0-0---|--0-0-0----0-0-0----0-0-0----0-0-0-0---|
----------------------------------------|----------------------------------------|----------------------------------------|--0----0-0-0-0-0----0-0-0----0-0-0------|--0----0-0-0-0-0----0-0-0----0-0-0------|--0----0-0-0-0-0----0-0-0----0-0-0------|
END WITH 3 OPEN CHORDS, LISTEN TO TO SONG TIMING right, well, that was fun. Now for the lead. :/ Guitar 2
D#|------------------------------------------------------------------------|A#|---------------------------------------------------------------------6b-|F#|---------------------------------------------------------------------9b-|C#|--8-----0-0-0----8-----0-0-0----8-----0--------------------0------------|G#|--8-----0-0-0----8-----0-0-0----8-----0.-------------------0------------|C#|--8-----0-0-0----8-----0-0-0----8-----0--------------------0------------|
D#|-----------------------------------------------|A#|-----------------------------------------------|F#|-----------------------------------------------|C#|--8-----0-0-0----8-----0-0-0----8-----0--------|G#|--8-----0-0-0----8-----0-0-0----8-----0.-------|C#|--8-----0-0-0----8-----0-0-0----8-----0--------|
----------------------------------------------------|----------------------------------------------------|----------------------------------------------------|--7h-8p-7-----------------5h----2-------------------|--------------8h----5-----------------4-------------|----------------------------------------------------|
----------------------------|------------------------(6)-|------------------------(9)-|--7--8--7-------------------|-----------8--5--3--8~------|
----------------------------------------------------|----------------------------------------------------|----------------------------------------------------|----------------------------------------------------|--5------------------5--5-8-----7-----8-----7-------|----------------------------------------------------|
----------------------------|----------------------------|----------------------------|--7--8--7-------------------|-----------8--5--3--8.------|----------------------------|
------------------------------------------------|--10---|--10---|--8----|------------------------------------------------|-------|-------|-------|------------------------------------------------|-------|-------|-------|--5-------------5-5-8-----7-----8-----7---------|-------|-------|-------|------------------------------------------------|-------|-------|-------|
--12-13---|--10---|--10---|--8----|--12-13---|----------|-------|-------|-------|----------|----------|-------|-------|-------|----------|----------|-------|-------|-------|----------|----------|-------|-------|-------|----------|----------|-------|-------|-------|----------|
(LIE!)
pm-----------------------------------------------------|-------------------------------------------------------|-----------------------------------------6B------------|-----------------------------------------9B------------|--0-0-0-0-0----------0-0----------0--------------------|--0-0-0-0-0----------0-0----------0--------------------|--0-0-0-0-0----------0-0----------0--------------| x 2-|
(Forgiveness...)---------------------------------|--13------------------------|-13/15-------------11----11------|--------11----11----11------|-------14----12-14----14----14---|-----14----14----14----14---|----------15---------------------|----------------------------|---------------------------------|----------------------------|---------------------------------|----------------------------|
----------------------------|----------------------------|--11----11----6b------------|--------------13/15---------|-----14----14-9b------------|-----------------------14---|----------------------------|----------------------------|----------------------------|----------------------------|----------------------------|----------------------------|
----------------------------|--13------------------------|--------------11----11------|--------11----11----11------|--14----12-14----14----14---|-----14----14----14----14---|-----15---------------------|----------------------------|----------------------------|----------------------------|----------------------------|----------------------------|
----------------------------|--11----11----6b------------|-----14----14-9b------------|----------------------------|----------------------------|----------------------------|
(You've gone too far...)-----------------------------------------------|-------|--------------------------6L-------------------|--6----|--------------------------9L-------------------|--9----|--0----0-0-0----0------------------------------|-------|--0----0-0-0----0------------------------------|-------|--0----0-0-0----0------------------------------|-------|
CHORUS
(So tell me,how does it feel?)(this plays whilst the other guitar does the 8875 chord)----------------------------|----------------------------|----------------------------|----------------------------|----------------------------|----------------------------|--7--7--7--7--7--7--7--7----|--7--7--7--7--7--7--7--7----|----------------------------|----------------------------|----------------------------|----------------------------|
(How does it feel to be like you?)(match this with the rhythms notes)----------------------------|----------------------------|----------------------------|----------------------------|----------------------------|----------------------------|--10-10-10-10-10-10-7--7----|--7--5--5--5--5--5--5--5----|----------------------------|----------------------------|----------------------------|----------------------------|
(I think your mouth should be quiet...)
-------------------------------------------|-------------------------------------------|-------------------------------------------|--0-0-0-0-0-0-0-0-0------------------------|--0-0-0-0-0-0-0-0-0------------------------|--0-0-0-0-0-0-0-0-0------------------------| chorus x2
VERSE 2
----------------------------|----------------------------|--------------------13/-----|--15---------11-------------|-----14---------------------|-----------14---14----------|--15----15-12-14-15---------|--------------------15------|----------------------------|----------------------------|----------------------------|----------------------------|x 4
-----------12s13s12---------|-----------12s13s12---------|--------13----------13------|--------13----------13------|-----14----------------14---|-----14----------------14---|--15------------------------|--15------------------------|----------------------------|----------------------------|----------------------------|----------------------------|x2
----------------------------|----------------------------|--------------------13/-----|--15---------11-------------|-----14---------------------|-----------14---14----------|--15----15-12-14-15---------|--------------------15------|----------------------------|----------------------------|----------------------------|----------------------------|x6
CHORUS
(So tell me,how does it feel?)(this plays whilst the other guitar does the 8875 chord)----------------------------|----------------------------|----------------------------|----------------------------|----------------------------|----------------------------|--7--7--7--7--7--7--7--7----|--7--7--7--7--7--7--7--7----|----------------------------|----------------------------|----------------------------|----------------------------|
(How does it feel to be like you?)(match this with the rhythms notes)----------------------------|----------------------------|----------------------------|----------------------------|----------------------------|----------------------------|--10-10-10-10-10-10-7--7----|--7--5--5--5--5--5--5--5----|----------------------------|----------------------------|----------------------------|----------------------------|
(I think your mouth should be quiet...)
-------------------------------------------|-------------------------------------------|-------------------------------------------|--0-0-0-0-0-0-0-0-0------------------------|--0-0-0-0-0-0-0-0-0------------------------|--0-0-0-0-0-0-0-0-0------------------------| chorus x2
INTERLUDE (Somethings are better left unsaid)
----------------------------|-------|----------------------------|-------|--15------------------------|-------|--15------------------------|-------|-----------14-------12------|-------|-----------10-------12------|-------|----------------------------|--12---|----------------------------|--10---|----------------------------|-------|----------------------------|-------|----------------------------|-------|----------------------------|-------|
----------------|-------|--------17----12L---12L12b--|--17-15---------|-------|-----15---------------------|--------14L-----|--14---|----------------------------|----------------|-------|----------------------------|----------------|-------|----------------------------|----------------|-------|----------------------------|
--12-12b12-12b12-12b12------|----------------------------|-------|----------------------------|--15------------------------|-------|----------------------------|-----------14-------12------|-------|----------------------------|----------------------------|--12---|----------------------------|----------------------------|-------|----------------------------|----------------------------|-------|
----------------------------|-------|----------------|-------|--15------------------------|-------|--17-15---------|-------|-----------10-------12------|-------|--------14L-----|--14---|----------------------------|--10---|----------------|-------|----------------------------|-------|----------------|-------|----------------------------|-------|----------------|-------|
--------17----12L---12L12b--|--12-12b12-12b12-12b12------|-----15---------------------|----------------------------|----------------------------|----------------------------|----------------------------|----------------------------|----------------------------|----------------------------|----------------------------|----------------------------|
----------------------------|-------|----------------------------|-------|--15------------------------|-------|--15------------------------|-------|-----------14-------12------|-------|-----------10-------12------|-------|----------------------------|--12---|----------------------------|--10---|----------------------------|-------|----------------------------|-------|----------------------------|-------|----------------------------|-------|
----------------|-------|--------17----12L---12L12b--|--17-15---------|-------|-----15---------------------|--------14L-----|--14---|----------------------------|----------------|-------|----------------------------|----------------|-------|----------------------------|----------------|-------|----------------------------|
--12-12b12-12b12-12b12------|----------------------------|-------|----------------------------|--15------------------------|-------|----------------------------|-----------14-------12------|-------|----------------------------|----------------------------|--12---|----------------------------|----------------------------|-------|----------------------------|----------------------------|-------|
----------------------------|-------|----------------|-------|--15------------------------|-------|--17-15---------|-------|-----------10-------12------|-------|--------14L-----|--14---|----------------------------|--10---|----------------|-------|----------------------------|-------|----------------|-------|----------------------------|-------|----------------|-------|
--------17----12L---12L12b--|--12-12b12-12b12-12b12------|-------|-------|-----15---------------------|----------------------------|--15---|--15g--|----------------------------|----------------------------|-------|-------|----------------------------|----------------------------|-------|-------|----------------------------|----------------------------|-------|-------|----------------------------|----------------------------|-------|-------|
(I KNOW)
--------17-------17---------|--17-------17-------17------|-----15-------15-------15---|--------15-------15---------|--14-------14-------14------|-----14-------14-------14---|----------------------------|----------------------------|----------------------------|----------------------------|----------------------------|----------------------------|
-----------12s13s12---------|-----------12s13s12---------|--------13----------13------|--------13----------13------|-----14----------------14---|-----14----------------14---|--15------------------------|--15------------------------|----------------------------|----------------------------|----------------------------|----------------------------|x 2
FINAL TIME (The final 3 open C's are in brackets for timing purposes)
--------17-------17---------|--17-------17-------17------|-------|-------||-----15-------15-------15---|--------15-------15---------|--15---|--15g--||--14-------14-------14------|-----14-------14-------14---|-------|-------||----------------------------|----------------------(0)---|--(0)--|--(0)--||----------------------------|----------------------(0)---|--(0)--|--(0)--||----------------------------|----------------------(0)---|--(0)--|--(0)--||
AND THATS IT. the guy who made the tab (apart from a few alterations's) email adress is mlmowery@aol.com, and my actual one is conner.grant@hotmail.co.uk. Hes a great guy, and hopefully putting this up here'll stop people pestering for tabs. if anyone wants to start a band like sleeping with sirens and lives in the sheffield area, email me, cos im really starting to love this music. peace. Legend: /: slide up \: slide down ~: vibrato/let ring h: hammer on p: pull off
Please rate this tab:
x1.0