Slightly Stoopid – Zeplike tab

Slightly Stoopid - Zeplike

Good song by an awesome band

Tabbed by T Nos



Guitar 1

|---------------0----------------------------------------------------------||---2-----4-----------4-----2-----2----------------------------------------||-----2-----2-----2-----2-----2-------1-----2------2/4---2-1h2p1-----------||---------------------------------------2-----2------------------20h2p0h2p0||-0-----0-----0-----0-----0-----0---2-----2-----2--------------------------||--------------------------------------------------------------------------|
Guitar 2
|---------------------------------16-------16-14-12----12------------------||------------------------------------17-------------12---------------------||---------------------------------------16---------------------------------||--------------------------------------------------------------------------||--------------------------------------------------------------------------||--------------------------------------------------------------------------|
Guitar 1
|---------------0-----0h2-0-------4/7-5-4h6p4-2h4p2-0----------------------||---2-----4-----------------4h5p4------------------------------------------||-----2-----2-----2-----------------------------------1---1-2/4---2-1h2p1--||-------------------------------------------------------2-----------------|-0-----0-----0-----0------------------------------------------------------||--------------------------------------------------------------------------|
Guitar 1 continued.....
|--------------------------------------------------------------------------||--------------------------------------------------------------------------||--------------------------------------------------------------------------||--0h2p0h2p0---------------------------------------------------------------||--------------------------------------------------------------------------||--------------------------------------------------------------------------|
0h2p0h2p0-| Guitar 2
|---9------11------12------11------9------9------12-------14p12----12------||-----10------10------10------10-----10-------------12----------12---------||-9------9-------9-------9-------9------9-----13-------13------------------||--------------------------------------------------------------------------||--------------------------------------------------------------------------||--------------------------------------------------------------------------|
Guitar 1
|---------------0----------------------------------------------------------||---2-----4-----------4-----2-----2----------------------------------------||-----2-----2-----2-----2-----2-------1-----2------2/4---2-1h2p1-----------||--------------------------------------2-----2------------------2-0h2p0h2p0||-0-----0-----0-----0-----0-----0---2-----2-----2--------------------------||--------------------------------------------------------------------------|
Guitar 2
|---9------11------12------11------9------9-------12-------14p12----12-----||-----10------10------10------10-----10--------------12----------12--------||-9------9-------9-------9-------9------9------13-------13-----------------||--------------------------------------------------------------------------||--------------------------------------------------------------------------||--------------------------------------------------------------------------|
Guitar 1
|-----------------------0------------------------0-----0-----0---||---------0---------0-----0----------------0-------------0-----0-||-----0-----0---------2----------------1-----1-------------1-----||---0---0---------2----------------------2-----2-----2-----------||---------------0--------------------2---------------------------||-3-----------3----------------3-2-0-----------------------------|
Guitar 2
|---3-----3---------5-----7------7/12----12-------14p12----12-||-----3-----3---3-----5-----10--------------12----------12----||-4-----4-----4---6-----6------9------13-------13-------------||-------------------------------------------------------------||-------------------------------------------------------------||-------------------------------------------------------------|
Guitar 1
|---------35----------------------------0-----------------||---------35-----------2h3p2-0----------0-----------------||-------------3/5---------------2-1h2----1-----------------||-------0-----2/4-----2------------------2-----------------||-------------------0--------------------2-----------------||-0-2-3-----------3----------------------0-----------------|
Guitar 2
|---3-----3---------5-----7------12------------------------||-----3-----3---3-----5-----10-----------------------------||-4-----4-----4---6-----6------9---------------------------||----------------------------------------------------------||----------------------------------------------------------||----------------------------------------------------------|
Guitar 1
|-------0-||---------||-1-2-4---||---------||---------||---------|
The second time around, Guitar 1 does this
|---------------------------0--------------------0-----0-----0---||---------0---------2h3p2-0----------------0-------------0-----0-||-----0-----0--------------------------1-----1-------------1-----||---0---0---------2----------------------2-----2-----2-----------||---------------0--------------------2---------------------------||-3-----------3----------------3-2-0-----------------------------|
Guitar 1
|-------0-----0--------------------------------0--------2h3p2---0---||---------0--------------2h3p2----0-------1------1------------------||-------------------------------------------0------0----------------||-----------------------------------------------------0-------0---0-||---------------------0---------0---0-2-3-----3---------------------||-3-2-0-----0---0-2-3-----------------------------------------------|
Guitar 2
|-------12-------12---------5-----5-------8-----8--------10-------10-------||----------12-------12--------5-----5-------8-----8---------10-------10----||----13-------13-------136-----6-----6/9-----9-----9/11-------11-------11-||--------------------------------------------------------------------------||--------------------------------------------------------------------------||--------------------------------------------------------------------------|
2nd time Guitar 1 adds this, listen to song for timing
|-----5p0---------7p0---||-5p4-----5---7p5-----5-||-----------------------||-----------------------||-----------------------||-----------------------|
Guitar 1 Solo by itself
|----5p4------------3p0-----------0----------------------||--------5----5p3-0-----0-2p0-2b-----2br-0h2p0h2p0h2p0h2-||--------------------------------------------------------| |--------------------------------------------------------||--------------------------------------------------------||-0------------------------------------------------------|
Please rate this tab:
x1.0