Slightly Stoopid - Fat Spliffs tab version 1

Song: Fat Spliffs
Band: Slightly Stoopid
Album: Closer to the Sun
Tabbed by: O-52-A-50-R

*The other guitar tab was pretty good but wasn't 
complete or fully accurate


Intro

Guitar 1

|----------------------------------------||----------------------------------------||----------------------------------------||------------7-7-------------6-6-6-4---4-||----7-7-5-5---------7-7-7-7---------7---||5-5-------------5-5---------------------|
Guitar 2 (Bass)
|--------------------------------||--------------------------------||--------------------------------||--------------0-----------------||0-0---0-2-0-----0-0---0-2-0-----||----2-------2-------2-------2-0-|
Guitar 1
|x-7-7-x-5-5-||x-5-5-x-5-5-||------------||------------||------------||------------|
Guitar 2
|--------------------------------------||--------------------------------------||--------------------------------------||0-0-----------------2-2---------------||----2-2-0---0-0-2-4-----2-2-0-0-0-2-4-||--------------------------------------|
Verse Guitar 1
|----------------------------------------||----------------------------------------||----------------------------------------||------------7-7-------------6-6-6-4---4-||----7-7-5-5---------7-7-7-7---------7---||5-5-------------5-5---------------------|
Guitar 2
|--------------------------------||--------------------------------||--------------------------------||--------------0-----------------||0-0---0-2-0-----0-0---0-2-0-----||----2-------2-------2-------2-0-|
Chorus Guitar 1
|x-7-7-x-5-5-||x-5-5-x-5-5-||------------||------------||------------||------------|
Guitar 2
|--------------------------------------||--------------------------------------||--------------------------------------||0-0-----------------2-2---------------||----2-2-0---0-0-2-4-----2-2-0-0-0-2-4-||--------------------------------------|
Tap to rate this tab
 
# A B C D E F G H I J K L M N O P Q R S T U V W X Y Z