Slipknot - Gematria tab

Slipknot - Gematria (The Killing Name)
Tuning: Drop B
Tabbed by: Billybusa (Me)

C#||----------------------------------------------|G#||----------------------------------------------|E ||----------------------------------------------|B ||--4----3--------------------------------------|F#||--2----1-------2----3-------7h8p7-6h7p6-5h6p5-|B ||----0----0--0--2-0--3-0--0--------------------| . . . . . .
----------------------------------------------------|----------------------------------------------------|----------------------------------------------------|--4----3--------------------------------------------|--2----1-------2----3-------5h6p5-------4h5p4-2h3p2-|----0----0--0--2-0--3-0--0--------0--0--------------| . . . . . . . .
-----------------------------------------|-----------------------------------------|-----------------------------------------|------------------5--------4-------------|------------------6--------5--------2/3--|----2h3p2---0--0-----0--0-----0--0--2/3--| . . . . . .
-------------------------------------|-------------------------------------|-------------------------------------|--------3/4--------------------------|--------1/2------7h8p7---------6h7p6-|--0--0-------0-0-------7h8p7---------|
. . 4x||------------------------------------------------||||------------------------------------------------||||*----------------------------------------------*||||*--------4----3--------------------------------*||||---------2----1-------2----3--------------------||||---0--0----0----0--0--2-0--3-0--0--0--0--5h8p5--|| . . . . . . . . . .
---------------------------------------||----------------------------------|---------------------------------------||----------------------------------|*-------------------------------------*||----------------------------------|*-------------------------------------*||-------------------------------5--|---------9--8----2--3------------------||--------9--8----2--3-----------6--|---0--0--9--8----2--3--0--0--0--5h8p5--||--0--0--9--8----2--3--0--0--0-----| . . . . . . . . . .
-----------------------------------------|-----------------------------------------|-----------------------------------------|--------4------------------3/4--------5--|--------5--------2/3-------1/2--------6--|--0--0-----0--0--2/3-0--0-------0--0-----| . . . . . . . .
------------------------------------------|------------------------------|------------------------------------------|------------------------------|------------------------------------------|------------------------------|--------4------------------3/4--------5---|--------4---------------------|--------5--------2/3-------1/2--------6---|--------5--------3/4\2/3-1/2--|--0--0-----0--0--2/3-0--0-------0--0------|--0--0-----0--0--3/4\2/3-1/2--| . . . . . . . . . . . .
4x|-------------------------------------------------|||-------------------------------------------------|||*-----------------------------------------------*|||*-----------------------------------------------*|||---0h1---------------------0h1--------------2h3--|||---0h1-0--<>2-0--<>5-0--0--0h1-0--<>3-0--0--2h3--|| . . . . . . .
-----------------------------------------|-----------------------------------------|-----------------------------------------|--------------4--------------------------|--0h1----2----2-------0h1----2----6----3-|--0h1-0--2-0----0--0--0h1-0--2-0--6-0--3-| . . . . . . .
-------------------------------------|-------------------------------------|-------------------------------------|--------------4----------------------|--0h1----2----2--------------3-------|--0h1-0--2-0----0--0--<>2------<>3---| . . . .
-----------------------------------------|-----------------------------------------|-----------------------------------------|--------------4--------------------------|--0h1----2----2-------0h1----2----6----3-|--0h1-0--2-0----0--0--0h1-0--2-0--6-0--3-| . . . . . . .
----------------------------------------------|----------------------------------------------|----------------------------------------------|--------------4-------------------------------|--0h1----2----2-------5--6--4--4--3--3--2--2--|--0h1-0--2-0----0--0--5--6--4--4--3--3--2--2--| . . Pm------------------------->
-----------------------------------------|-----------------------------------------|-----------------------------------------|--------------4--------------------------|--0h1----2----2-------0h1----2----6----3-|--0h1-0--2-0----0--0--0h1-0--2-0--6-0--3-| . . . . . . .
-------------------------------------|-------------------------------------|-------------------------------------|--------------4----------------------|--0h1----2----2--------------3-------|--0h1-0--2-0----0--0--<>2------<>3---| . . . .
-----------------------------------------|------------------------------|-----------------------------------------|------------------------------|-----------------------------------------|------------------------------|--------------4--------------------------|--------------4---------------|--0h1----2----2-------0h1----2----6----3-|--0h1----2----2-------2/12\2--|--0h1-0--2-0----0--0--0h1-0--2-0--6-0--3-|--0h1-0--2-0----0--0--2/12\2--| . . . . . . . . . . .
------------------------------|------------------------------------|------------------------------|----------------------------9-9-8-8-|------------------------------|------------------------------------|--5--5----------4--4----------|--5--5----------6--7--6--5----------|--3--3-6--6-5-0-2--2-6--6-5-0-|--3--3-6--6-5-0---------------------|-------6--6-5-0------6--6-5-0-|-------6--6-5-0---------------------|
Pm--------> 4x|-------------------------------------------||--------------------------|||-------------------------------------------||--------------------------|||*-----------------------------------------*||*------------------------*|||*--------------4--------------------------*||*------------------------*|||---0h1----2----2-------0h1----2----6----3--||-----------3----------7---|||---0h1-0--2-0----0--0--0h1-0--2-0--6-0--3--||---0---1-------3---6------|| . . . . . . . Tp------------------->
------------------------------|------------------------------------|------------------------------|----------------------------9-9-8-8-|------------------------------|------------------------------------|--5--5----------4--4----------|--5--5----------6--7--6--5----------|--3--3-6--6-5-0-2--2-6--6-5-0-|--3--3-6--6-5-0---------------------|-------6--6-5-0------6--6-5-0-|-------6--6-5-0---------------------| Pm-------->
------------------------------|-------------------------------------|------------------------------|-------------------------------------|------------------------------|-------------------------------------|--5--5----------4--4----------|--5--5-------------------------------|--3--3-6--6-5-0-2--2-6--6-5-0-|--3--3-6--6-5-0-------------------1--|-------6--6-5-0------6--6-5-0-|-------6--6-5-0-5--6--5--3--4--2--1--| Pm-------------->
-----------------------------------|-----------------------------------|-----------------------------------|-----------------------------------|-----------------------------------|-----------------------------------|-----------------------------------|--------------------------------8--|--0--5--6--5--5--6--5--4--5--4--1--|--0--5--6--5--5--6--5--4--5--4--6--|--0--5--6--5--5--6--5--4--5--4--1--|--0--5--6--5--5--6--5--4--5--4-----| Pm--------------> Pm------------->
-----------------------------------|------------------------------|-----------------------------------|------------------------------|-----------------------------------|------------------------------|--7--------------------------------|--------------8-7-5---7-5-----|--5--5--6--5--5--6--5--4--5--4--1--|--0--5--6--5--------6-----6-5-|-----5--6--5--5--6--5--4--5--4--1--|--0--5--6--5------------------| Pm------------->
-----------------------------------|-----------------------------------|-----------------------------------|-----------------------------------|-----------------------------------|-----------------------------------|-----------------------------------|--------------------------------8--|--0--5--6--5--5--6--5--4--5--4--1--|--0--5--6--5--5--6--5--4--5--4--6--|--0--5--6--5--5--6--5--4--5--4--1--|--0--5--6--5--5--6--5--4--5--4-----| Pm--------------> Pm-------------->
-----------------------------------|-----------------|-----------------------------------|-----------------|-----------------------------------|-----------------|--7--------------------------------|--------------7--|--5--5--6--5--5--6--5--4--5--4--1--|--0--5--6--5--5--|-----5--6--5--5--6--5--4--5--4--1--|--0--5--6--5-----| Pm-------------->
-----------------------------------|-----------------------------------|-----------------------------------|-----------------------------------|-----------------------------------|-----------------------------------|--------------------------------8--|--7-----------------------------8--|--0--5--6--5--5--6--5--4--5--4--6--|--5--5--6--5--5--6--5--4--5--4--6--|--0--5--6--5--5--6--5--4--5--4-----|-----5--6--5--5--6--5--4--5--4-----| Pm--------------> Pm------------->
-----------------------------------|-------------------------------|-----------------------------------|-------------------------------|-----------------------------------|-------------------------------|--7-----------------------------8--|--7----------------------------|--5--5--6--5--5--6--5--4--5--4--6--|--5--5--6--5-------------------|-----5--6--5--5--6--5--4--5--4-----|-----5--6--5--<>6~----<>3br----| Pm------------->
-----------------------------------|-----------------------------------|-----------------------------------|-----------------------------------|-----------------------------------|-----------------------------------|--------------------------------8--|--7-----------------------------8--|--0--5--6--5--5--6--5--4--5--4--6--|--5--5--6--5--5--6--5--4--5--4--6--|--0--5--6--5--5--6--5--4--5--4-----|-----5--6--5--5--6--5--4--5--4-----| Pm--------------> Pm-------------->
-----------------------------------|-------------------------------|-------|-----------------------------------|-------------------------------|-------|-----------------------------------|-------------------------------|-------|--7-----------------------------8--|--7----------------------------|-------|--5--5--6--5--5--6--5--4--5--4--6--|--5--5--6--5-------------------|-------|-----5--6--5--5--6--5--4--5--4-----|-----5--6--5--<>6~----<>3br----|-------| Pm------------->
First part of solo:--18-19-16-16-18----19-18-18-19-18----19-18----18-19-16-------18-19-16----18-19------------------19----------------19-------18----------18-19----------18---------------------------------------------------------------------------------------------------------------------------------------------------------------------------------------------------------------------------------------------------------------------------------------------------------------------------------------
--20-19-17-------------------------18-16-15-------------------18-19-16-17------------------16-16-17-19-19-17-16-16----------16-16-17-19-17-16-------------16-17---------------------------------------------------------------------------------------------------------------------------------------------------------------------------------------------------------------------------------------------------------------------------------------------------------------------------------
------------------------------|------------------------------|--15brb-----------------------|---------------16brb----------|------------------------------|------------------------------|
Repeat this for a while:--------------------------|-------------------------|--------------------------|-------------------------|--7--5--7--8--7--5--7--8--|--7--5--7--8--10----5----|--------------------------|-------------------------|--5--3--5--6--5--3--5--6--|--5--3--5--6---8----3----|--------------------------|-------------------------|
--------------------------------|----------------------------|--------------------------------|----------------------------|--10--9--10--12--10--9--10--12--|--10--9--10--12--14----9----|--------------------------------|----------------------------|---8--7---8--10---8--7---8--10--|---8--7---8--10--12----7----|--------------------------------|----------------------------|
-----------------------------------|-----------------------------------|-----------------------------------|-----------------------------------|-----------------------------------|-----------------------------------|--------------------------------8--|--7-----------------------------8--|--0--5--6--5--5--6--5--4--5--4--6--|--5--5--6--5--5--6--5--4--5--4--6--|--0--5--6--5--5--6--5--4--5--4-----|-----5--6--5--5--6--5--4--5--4-----| Pm--------------> Pm------------->
-----------------------------------|--------------------------|-----------------------------------|--------------------------|-----------------------------------|--------------------------|--7-----------------------------8--|--7-----------------------|--5--5--6--5--5--6--5--4--5--4--6--|--5--5--6--5/6----2--2--1-|-----5--6--5--5--6--5--4--5--4-----|-----5--6--5/6----2--2--1-| Pm-------------> . .
|----------------------------------||----------------------------------||------------4---------------------||------------2---------------------||--0-0-0-1-----0-0-1-0-0-6-0-0-0-0-||--0-0-0-1-0---0-0-1-0-0-6-0-0-0-0-|
. . . . . . . . . . . . 4x|-------------------------------|-------------------------------------|||-------------------------------|----------------------------9-9-8-8--|||*------------------------------|------------------------------------*|||*--5--5----------4--4----------|--5--5----------6--7--6--5----------*|||---3--3-6--6-5-0-2--2-6--6-5-0-|--3--3-6--6-5-0----------------------|||--------6--6-5-0------6--6-5-0-|-------6--6-5-0----------------------|| Pm--------->
-----------------------------------|-----------------------------------|-----------------------------------|-----------------------------------|-----------------------------------|-----------------------------------|-----------------------------------|--------------------------------8--|--0-----------5--6--5--4--5--4--1--|--0-----------5--6--5--4--5--4--6--|--0-----------5--6--5--4--5--4--1--|--0-----------5--6--5--4--5--4-----| Pm--------------> Pm-------------->
------------------------------------|--------------------------------------|------------------------------------|--------------------------------------|------------------------------------|--------------------------------------|--7---------------------------------|--------------------------------------|--5-----------0--0--0--0--0--0--0-0-|--0--0--5--6--5--5--6--5--4--5--4--1--|--------------0--0--0--0--0--0--0-0-|--0--0--5--6--5--5--6--5--4--5--4--1--| Pm-------------------------------------------------------->
--------------------------------------|-----------------------------------|--------------------------------------|-----------------------------------|--------------------------------------|-----------------------------------|-----------------------------------8--|--7--------------------------------|--0--0--5--6--5--5--6--5--4--5--4--6--|--5--5--6--5--5--6--5--4--5--4--1--|--0--0--5--6--5--5--6--5--4--5--4-----|-----5--6--5--5--6--5--4--5--4--1--| . . Pm-------------> Pm-------------->
--------------------------------------|-------------------------------|-------|--------------------------------------|-------------------------------|-------|--------------------------------------|-------------------------------|-------|-----------------------------------8--|--7----------------------------|-------|--0--0--5--6--5--5--6--5--4--5--4--6--|--5--5--6--5-------------------|-------|--0--0--5--6--5--5--6--5--4--5--4-----|-----5--6--5--<>6~----<>3br----|-------| . . Pm-------------->
|----------------------------------|||----------------------------------|||------------4---------------------|||------------2---------------------|||--0-0-0-1-----0-0-1-0-0-6-0-0-0-0-|||--0-0-0-1-0---0-0-1-0-0-6-0-0-0-0-|| . . . . . . . . . . . .
Tap to rate this tab
 
# A B C D E F G H I J K L M N O P Q R S T U V W X Y Z