Slipknot - Left Behind tab

My Plague

Drop D tuning, down 1 ? steps:(Low to High) B F# B E G# C#

Thanks to Alfonso Nieto (LMK)

-------------------|-----------------|-------------------| -------------------|-----------------|-------------------| -------------------|-----------------|-------------------| -------------------|-----------------|-------------------| --1p0-0--------1/6-|-6-----1---------|-------1-1---1/6---| --------2-2p1------|---0-0---2-1-1/6-|-6-0-0-----2-------|
Gtr.1------------------|------------------|-------------------| ------------------|------------------|-------------------| ------------------|------------------|-------------------| ------------------|------------------|-------------------| -6-----1----------|-------1-1---1/6--|-6-----1-----------|---0-0---2-1-1/6--|-6-0-0-----2------|---0-0---2-1-1/6---|
Gtr.2------------------|------------------|-------------------| ------------------|------------------|-------------------| ------------------|------------------|-------------------| ---------x-x------|------------------|-------------------| ---------x-x------|-------1-1---1/6--|-6-----1-----------| -------------1/6--|-6-0-0-----2------|---0-0---2-1-1/6---|
Gtr.1 & 2------------------|------------------|-------------------| ------------------|------------------|-------------------| ------------------|------------------|-------------------| ------------------|------------------|-------------------| -------1-1---1/6--|-6-----1----------|-------1-1----1/6--| -6-0-0-----2------|---0-0---2-1-1/6--|-6-0-0-----2-------|
Gtr.1 ------------------|------------------|-------------------| ------------------|------------------|-------------------| ------------------|------------------|-8-8-8-8-8-8-------| ------------------|------------------|-x-x-x-x-x-x-------| -6-----1----------|-------1-1---1/6--|-6-6-6-6-6-6-------| ---0-0---2-1-1/6--|-6-0-0-----2------|--------------13/--|
Gtr.2------------------|------------------|-------------------| ------------------|------------------|-------------------| ------------------|------------------|-8-8-8-0B-0b-0b----| ------------------|------------------|-------------------| -6-----1----------|-------1-1---1/6--|-------------------| ---0-0---2-1-1/6--|-6-0-0-----2------|----------------13/|
VerseGtr.1------------------|------------------|-------------------|------------------|------------------|------------------|-------------------|------------------| ---------------8--|-8-7-7------------|---------------8---|-8-7-7------------|---------------x--|-x-x-x------------|---------------x---|-x-x-x------------| -1-0-0-6-6-0-0-6--|-6-5-5-6-6-0-0-1--|-1-0-0-6-6-0-0-6---|-6-5-5-3-3-3-3-1--|-1-0-0-6-6-0-0----|-------6-6-0-0-1--|-1-0-0-6-6-0-0-----|-------3-3-3-3-1--|
Gtr.2------------------|------------------|-------------------|------------------|------------------|------------------|-------------------|------------------|------------------|------------------|-------------------|------------------|------------------|------------------|--------%----------|------------------|-1-0-0-6-6-0-0-1--|-1-0-0-6-6-0-0-1--|-------------------|-1-0-0-3-3-3-3-1--| -1-0-0-6-6-0-0-1--|-1-0-0-6-6-0-0-1--|-------------------|-1-0-0-3-3-3-3-1--|
ChorusGtr.1 Riff A------------------|------------------|-------------------|------------------|------------------|------------------|-------------------|-----10-10-10-10/-|-3-3--8-8--3-3----|-8-8---3---8------|-----7-7------7----|------x--x--x-x--|-x-x--x-x--x-x----|-x-x---x---x------|-6-6--------6---6--|------7--7--7-7/-|-1-1--6-6--1-1----|-6-6---1---6------|-------------------|-5-5--------------|------------------|------------------|-------------------|------------------|
------------------|------------------|-------------------|------------------|------------------|------------------|-------------------|------------------|------------------|------------------|-------------------|------------------|------------------|------------------|-------------------|------------------|-1----------------|------------------|-6-6-6-6-6---6-6-1-|-1-1-1-1-1-1-1-1--|------------------|--------------13/-|-6-6-6-6-6---6-6-1-|-1-1-1-1-1-1-1-1--|
Gtr.2 Rhy.Fig.2------------------|------------------|-------------------|------------------|------------------|------------------|-------------------|------------------|------------------|------------------|-------------------|------------------|-3-3--8-8/3-3-3---|-8-8---3---8------|-------------------|------------------|-1-1--6-6/1-1-1---|-6-6---1---6------|-6-6-6-6-6-6-6-6-6-|-1-1-1-1-1-1-1-1--|------------------|------------------|-6-6-6-6-6-6-6-6-6-|-1-1-1-1-1-1-1-1--|
Interlude 1Gtr.1 & 2------------------|------------------|-------------------| ------------------|------------------|-------------------| ------------------|------------------|-------------------| ------------------|------------------|-------------------| -1p0-0-------1/6--|-6-----1----------|-------1-1---1/6---| -------2-2p1------|---0-0---2-1-1/6--|-6-0-0-----2-------|
Interlude 2Gtr.1 w/delay------------------------------------------------------------------------------------||---------------------------------|----------------------------------------------------||---------------------------------|---------------------------------8-8-8-8-8-8-------.||-11------------------------------|---------------------------------x-x-x-x-x-x-------.||--x------------------------------|---------------------------------6-6-6-6-6-6--------||--8------------------------------|-------------------------------- -------------13/----||---------------------------------|--------------------------------
Gtr.2 PM----------------------------------------------------------------------------------------||---------------------------------|-----------------------------------------------------||---------------------------------|----------------------------------8-8-8-0B-0b-0b----.||---------------------------------|----------------------------------------------------.||---------------------------------|-----------------------------------------------------||-1-1-1-1-1-1-6-6-6-6-6-6-1-1-1-1-|-1-1-6-6-6-6-6-6-1-1-1-1-6-6-6-6-----------------13/-||---------------------------------|---------------------------------
Gtr.2PM---------------------------------------------------------------------------------------------------|----------------------------------| ----------------------------------|----------------------------------| ----------------------------------|----------------------------------| ----------------------------------|----------------------------------| ----------------------------------|----------------------------------| -6-6-6-6-6-6-6-6-6-6-6-6-6-6-6-6--|-1-1-1-1-1-1-1-1-1-1-1-1-1-1-1-1--|
Gtr.1 Vibrator---------------------------|------------------|----------------------|----7---0---0---0--| ------------------|---------11-11-11-|--11-11-11-11-11-11-0-|------0---0---0----| -8----------------|------------------|----------------------|-------------------| -8----------------|------------------|----------------------|-------------------| ------------------|------------------|----------------------|-------------------|------------------|------------------|----------------------|-------------------|
------------------|------------------|-------------------| -11---------------|--------------16--|-17------16-16--16-| ------------------|------------------|-----13------------| -----------8------|----------/13-----|-------------------| ------------------|------------------|-------------------| ------------------|------------------|-------------------|
------------------|------------------|-------------------| -(16)-16--16-16---|-11---------------|--------11/-----16-| -------x---x--x---|--x---------------|---------x---------| ------13--13-13---|--8---------------|---------8/--13----| ------------------|------------------|-------------------| ------------------|------------------|-------------------|
---------------------|--------------------------------------|----------------------| -17--16-16-16-16-16--|-16--16-16-16--16--16-16-16-16-16/----|-11-------------12----| ---------------------|--------------------x--x--x--x--x-----|--x--------------x----| ---------------------|-------------------13-13-13-13-13/----|--8--------------9----| ---------------------|--------------------------------------|----------------------| ---------------------|--------------------------------------|----------------------|
------------------|------------------|-------------------| ----11------------|-17---16----------|-16-------16-------| -----x------------|--x---------------|-----------x-------| -----8------------|-14--------13-----|----------13-------| ------------------|------------------|-------------------| ------------------|------------------|-------------------|
------------------|------------------|--------------------| -11--------12-----|---11-------------|-16--16-16-16-16-16-| --x---------x-----|----x-------------|-13--13-13-13-13-13-| --8---------9-----|----8-------------|--------------------| ------------------|------------------|--------------------| ------------------|------------------|--------------------|
Gtr.2PM------------------------------------------------------------------------------------------------------------------------|-------------------------|---------------------------- ---------------------------------|-------------------------|--------------------------------------------------------------|-------------------------|--------------------------------------------------------------|-------------------------|------------------------------1-1-1-1-1-1-6-6-6-6-6-6-1-1-1-1-|-1-1-1-1-1-1-6-6-6-6-6-6-|--------------------------------------------------------------|-------------------------|-6-6-6-6-6-6-6-6-6-6-6-6-6-6-
Gtr.1------------------|------------------|-------------------| ------------------|------------------|-------------------| ------------------|------------------|-------------------| ------------------|------------------|-------------------| ------------------|-1-----6----1-----|--6---1-1-6-6------| -X-----X-----X----|-1-----6----1-----|--6---1-1-6-6------|
Gtr.2------------------|------------------|-------------------| ------------------|------------------|-------------------| ------------------|------------------|-------------------| ------------------|------------------|-------------------| ------------------|-1-----6----1-----|--6---1-1-6-6------| -1-1-1-1-1-1-1-1--|-1-----6----1-----|--6---1-1-6-6------|
end is = intro ok cool!------------------|------------------|-------------------| ------------------|------------------|-------------------| ------------------|------------------|-------------------| ------%-----------|--------%---------|--------%----------| ------------------|------------------|-------------------| ------------------|------------------|-------------------|
B.- Bend ? b.- Bend 1 x.- Muted string /.- slide %.- repeat P.- Pull off PM.- Palm Mute Gtr.1.- Guitar 1 Gtr.2.- Guitar 2 W/delay.- is a effect
Tap to rate this tab
 
# A B C D E F G H I J K L M N O P Q R S T U V W X Y Z