Slipknot - Wait And Bleed tab

intro-Gtr.1----------------------------------------------------------------------------|----------------------------------------------------------------------------|----------------------------------------------------------------------------|----0--------7-----7\----1---1-------8----8--------7-----7------------------|------------------------------------------------5-----5---------7----7------|-0----0---7-----7------1----1----/8-----8--------------------7-----7--------|
------------------------------------------------|------------------------------------------------|------------------------------------------------|----8-----8-------------------------------------|-6-----6---------8------8-----------------------|--------------8----8-8--------------------------|
Gtr.2 (2nd time)------------------------------------------------------------|------------------------------------------------------------|---14-14-14-14-14-14-14-14-14----15-15-15-15-15-15----------|---x--x--x--x--x--x--x--x--x-----x--x--x--x--x--x-----------|---12-12-12-12-12-12-12-12-12----13-13-13-13-13-13----------|------------------------------------------------------------|
Gtr.1----------------------------------------------------|----------------------------------------------------|----------------------------------------------------|-000--00--------------------------------------------|-000--00--------------------------------------------|-000--00--0-/6--------------------------------------|
Gtr.2-----------------------------------------------------|-----------------------------------------------------|-----------------------------------------------------|-000--00---------------------------------------------|-000--00---------------------------------------------|-000--00---------------------------------------------|
Gtr.1 and 2 last time-----------------------------------------------------|-----------------------------------------------------|-----------------------------------------------------|--000--00--------------------------------------------|--000--00--------------------------------------------|--000--00--0-/6--------------------------------------|
Gtr.1 and 2--------------------------------------------------------|--------------------------------------------------------|--------------------------------------------------------|-000--00-----1-4-1--------------------------------------|-000--00-----1-4-1--------------------------------------|-000--00-----1-4-1--------------------------------------| pm--------------------------------------------|
Chorus Gtr.1----------------------------------------------------------------------------|----------------------------------------------------------------------------|----------------------------------------------------------------------------|----0--------7-----7\----1---1-------8----8--------7-----7------------------|------------------------------------------------5-----5---------7----7------|-0----0---7-----7------1----1----/8-----8--------------------7-----7--------|
------------------------------------------------|------------------------------------------------|------------------------------------------------|----8-----8-------------------------------------|-6-----6---------8------8-----------------------|--------------8----8-8--------------------------|
Gtr.2------------------------------------------------------------|------------------------------------------------------------|---14-14-14-14-14-14-14-14-14----15-15-15-15-15-15----------|---x--x--x--x--x--x--x--x--x-----x--x--x--x--x--x-----------|---12-12-12-12-12-12-12-12-12----13-13-13-13-13-13----------|------------------------------------------------------------|
------------------------------------------------------------|------------------------------------------------------------|-7-7-7-7-7-7-7-7-7---8-8-8-8-8-6-7--------------------------|-x-x-x-x-x-x-x-x-x---x-x-x-x-x-x-x--------------------------|-5-5-5-5-5-5-5-5-5---6-6-6-6-6-6-5--------------------------|------------------------------------------------------------|
Interlude-Gtr.1-------------------------------------------------|-------------------------------------------------|-------------------------------------------------| x4------7------------------------------------------|-6/8-----5-----5~--------------------------------|------------0------------------------------------| pm
Gtr.1-------------------------------------------------------|-------------------------------------------------------|-------------------------------------------------------|------3-7-0----0-0-0---3-7-0----0-0-0------------------|------3-7-0----0-0-0---3-7-0----0-0-0------------------|------3-7-0----0-0-0---3-7-0----0-0-0------------------| pm pm
Gtr.2--------------------------------------------------|--------------------------------------------------|--------------------------------------------------|-0-0--3-7-0---0-0-0---3-7-0---0-0-0---------------|-0-0--3-7-0---0-0-0---3-7-0---0-0-0---------------|-0-0--3-7-0---0-0-0---3-7-0---0-0-0---------------|pm-- pm pm
Gtr.1--------------------------------------------------|--------------------------------------------------|--------------------------------------------------|-0-0-0-0--7-7-7-7/--1-1-1-1-1-1-------------------|-0-0-0-0--7-7-7-7/--1-1-1-1-1-1-------------------|-0-0-0-0--7-7-7-7/--1-1-1-1-1-1-------------------|
Gtr.2------------------------------------------------------------|------------------------------------------------------------|---14-14-14-14-14-14-14-14-14----15-15-15-15-15-15----------|---x--x--x--x--x--x--x--x--x-----x--x--x--x--x--x-----------|---12-12-12-12-12-12-12-12-12----13-13-13-13-13-13----------|------------------------------------------------------------|
------------------------------------------------------------|------------------------------------------------------------|-7-7-7-7-7-7-7-7-7---8-8-8-8-8-6-7--------------------------|-x-x-x-x-x-x-x-x-x---x-x-x-x-x-x-x--------------------------|-5-5-5-5-5-5-5-5-5---6-6-6-6-6-6-5--------------------------|------------------------------------------------------------|
Gtr.1----------------------------------------------------|----------------------------------------------------|----------------------------------------------------|-000--00--------------------------------------------|-000--00--------------------------------------------|-000--00--0-/6--------------------------------------|
Gtr.2-----------------------------------------------------|-----------------------------------------------------|-----------------------------------------------------|-000--00---------------------------------------------|-000--00---------------------------------------------|-000--00---------------------------------------------|
Gtr.1 and 2 last time-----------------------------------------------------|-----------------------------------------------------|-----------------------------------------------------|--000--00--------------------------------------------|--000--00--------------------------------------------|--000--00--0-/6--------------------------------------|
Gtr.1 and 2-------------------------------------------------------|-------------------------------------------------------|-------------------------------------------------------|-000--00-----1-4-1-------------------------------------|-000--00-----1-4-1-------------------------------------|-000--00-----1-4-1-------------------------------------|
Gtr.1 and 2 last time-------------------------------------------------------|-------------------------------------------------------|-------------------------------------------------------|-000---------------------------------------------------|-000---------------------------------------------------|-000---------------------------------------------------|
Tap to rate this tab
 
# A B C D E F G H I J K L M N O P Q R S T U V W X Y Z