Slipknot - Vermilion Part 2 tab

Vermilion Pt. 2

Drop D tuning 1 1/2 steps:
(low to high) B-F#-B-E-G#-C#


Intro(Guitar 1 Acous.)|----------|----------|--------|------||----------|----------|--------|------||-4--------|----------|--------|------||-----6----|----------|--------|------||--------5-|-(5)\4----|--------|------||----------|----------|-0------|------|
| |
(Guitar 2 Acous.)|-------------------------------------||-------------------------------------||-------------------------------------||-12---12-------12---12---12---12-----||-9----9----9---9----9----9----10-----||-9---------9---11---11--------9----9-|
| || ||-------------------------------------||-------------------------------------||-------------------------------------||------12-------12---12---12---12---0-||-10---9----9---9----9----10---9----0-||-9----9----9--------9----9----9------|
| || ||-------------------------------------||-------------------------------------||-7----------7-----7-----7---------7--||-x----------x-----x-----x---------x--||-5-----5----5-----5-----5-----5---5--||-0-----0----0-----0-----------0------|
| || ||-------------------------------------||-------------------------------------||-7-----7----7-----7-----7-----7---0--||-x-----x----x-----x-----x-----x---0--||-5\4---4----4-----4-----4-----4---0--||-------0----------0-----------0------|
(Guitar 1 Acous.) When she makes me...|----------|-------|-------|----------||-1--------|-------|-------|------5---||-0--------|-------|-------|------2---||-2--------|-------|-------|----------||-3--------|-------|-------|----------||----------|-------|-------|----------|
| |
(Guitar 2 Acous.)|-------0----0------------------------||---1---1----1------------------------||---0---0-----------------------------||---2---2-----------------------------||---3---------------------------------||-------------------------------------|
| || ||-------------------------------------||-1--------1------1------1------1-----||-0--------0------0------0------0-----||-2--------2------2------2------2-----||-3--------3------3------3------3-----||-------------------------------------|
| || ||-----------------0-------------0-----||-1---------------1-------------1-----||-0---------------0-------------0-----||-2--------2-------------2------------||-3--------3-------------3------------||-------------------------------------|
| || ||-0-----------------------------------||-1---------------1-------------1-----||-0---------------0-------------0-----||-2----------------------2------------||-3--------3-------------3------------||-------------------------------------|
Introlude(Guitar 1 Acous.)|----------|--------|----------|------||----------|--------|----------|------||----------|--------|----------|------||-0--------|--------|-0--------|------||-0--------|--------|-0--------|------||-0--------|--------|-0--------|------|
| |
(Guitar 2 Acous.)|-------------------------------------||-------------------------------------||-7-----7----7----7----7----7----7----||-X-----X----X----X----X----X----X----||-5-----5----5----5----5----5----5----||-0-----0----0----0----0----0---------|
| || ||-------------------------------------||-------------------------------------||-----7----7----7----7------7----7----||-----X----X----X----X------X----X----||-----5----5----5----5------5----5----||-0---7----7----7----6------6----6----|
| || ||-------------------------------------||-------------------------------------||-7-----7----7----7----7----7----7----||-X-----X----X----X----X----X----X----||-5-----5----5----5----5----5----5----||-0-----0----0----0----0----0---------|
| || ||-------------------------------------||-------------------------------------||-----7----7----7----7------7---------||-----X----X----X----X------X----0----||-----5----5----5----5------5----0----||-0---7----7----7----6------6---------|
(Guitar 1 Acous.)|------------------|------------------||------------------|------------------||------------------|------------------||-0----------------|------------------||-0----------------|------------------||-0----------------|------------------|
| |
(Guitar 2 Acous.)|-------------------------------------||-------------------------------------||-7----7----7----7----7----7----7---7-||-X----X----X----X----X----X----X---X-||-5----5----5----5----5----5----5---5-||-0----0----0----0----0----0----0---0-|
| || ||-------------------------------------||-------------------------------------||-7----7----7----7-----7--------7---7-||-X----X----X----X-----X--------X---X-||-5----5----5----5-----5--------5---5-||-0----7----7----7-----6--------6---6-|
Chorus(Guitar 1 Acous.)|----0----|-------0-|----0----|-0----0-||---------|-10------|---------|--------||------10-|----10---|------10-|---10---||-12------|---------|-12------|--------||---------|---------|---------|--------||---------|---------|---------|--------|
| |
(Guitar 2 Acous.)|---0---0-|-----0---0-|-----0---0-|-----0---0-||---6-6---|---6---6---|---6---6---|---6---6---||---7-----|---7---7---|---7---7---|---7---7---||---------|-----------|-----------|-----------||---------|-----------|-----------|-----------||-8-------|-7---------|-0---------|-3---------|
Chorus Cont.(Guitar 1 Acous.)|----0----|-------0-|----0----|-10----0-||---------|-10------|---------|---------||------10-|----10---|------10-|----10---||-12------|---------|-11------|---------||---------|---------|---------|---------||---------|---------|---------|---------|
| |
(Guitar 2 Acous.)|-----0---0-|-----0---0-|-----0---0-|-----0---0-||---6---6---|---6---6---|---6---6---|---6---6---||---7---7---|---7---7---|---7---7---|---7---7---||-----------|-----------|-----------|-----------||-----------|-----------|-----------|-----------||-8---------|-7---------|-0---------|-3---------|
Introlude 2(Guitar 1 Acous.)|---------|-------|---------|------||---------|-------|---------|------||---------|-------|---------|------||-12------|-------|---------|------||---------|-------|---------|------||---------|-------|---------|------|
| |
(Guitar 2 Acous.)|-------------------0-------------0---||-----------6--------------6----------||-----------7--------------7----------||-------------------------------------||-------------------------------------||-0-----------------------------------|
| || ||-0-----------------------------------||-6-----------------------------------||-7------------9------------10--------||--------------X------------X---------||--------------7------------8---------||-------------------------------------|
| || ||-------------------------------------||-3---------3------3------3-----------||-3---------3------3------3-----------||-3---------3------3------3-----------||-1---------1------1------1------0----||-------------------------------------|
| || ||-------------------------------------||-1---------1------1------1------1----||-0---------0------0------0------0----||-2---------2------2------2------2----||-3---------3------3------3------3----||-------------------------------------|
(Guitar 2 Acous.)|-------------------------------------||-1---------1------1------1------1----||-0---------0------0------0------0----||-2---------2------2------2------2----||-3---------3------3------3------3----||-------------------------------------|
| || ||-------------------------------------||--------3-------3-------3------------||--------3-------3-------3------------||--------3-------3-------3------------||--------1-------1-------1------------||-------------------------------------|
| || ||-1---------1------1------1-----------||-3---------3------3------3-----------||-2---------2------2------2------0----||-0---------0------0------0------0----||-0---------0------0------0------0----||-0---------0------0------0-----------|
(Guitar 2 Acous.)|-------------------------------------||-------------------------------------||-------------------------------------||-5--------5------5------5------0-----||-5--------5------5------5------0-----||-5--------5------5-------------------|
| || ||-------------------------------------||-------------------------------------||-7--------6---------7---------7------||-X--------X---------X---------X------||-5--------4---------5---------5------||-0-----------------------------------|
| || ||-------------------------------------||-------------------------------------||-7------------6------------7---------||-X------------X------------X---------||-5------------4------------5---------||-0-----------------------------------|
| || ||-------------------------------------||-6------6-----6-----6-----6----------||-7------7-----7-----7-----7----------||-7------7-----------7----------------||-5------5-----------5----------------||-------------------------------------|
| || ||-------------------------------------||-3---------3------3------3------3----||-3---------3------3------3------3----||-3---------3------3------3------3----||-1---------1------1------1------1----||-------------------------------------|
(Guitar 2 Acous.)|-------------------------------------||-------------------------------------||-8\7--------5--------7---------------||-X----------X--------X---------------||-6\5--------3--------5---------------||-0----------0--------0--------0------|
| || ||-------------------------------------||-------------------------------------||-8\7--------5 / 9--------7-----------||-X----------X---X--------X-----------||-6\5--------3 / 7--------5-----------||-0----------0---0--------------------|
| || ||-------------------------------------||-6-------6------6------6------6------||-7-------7------7------7------7------||-7-------7------7------7------7------||-0-------0------0------0------0------||-------------------------------------|
| || ||------------------------------0------||-6-------6------6------6-------------||-7-------7------7------7-------------||-0-------0------0------0-------------||-X-------X------X------X-------------||-8-------8------8------8-------------|
Tap to rate this tab
 
# A B C D E F G H I J K L M N O P Q R S T U V W X Y Z