Smashing Pumpkins - Frail & Bedazzled tab

From: ErnieBall@aol.com

Song;Frail and Bedazzled
From; Smashing Pumpkins
Author; ErnieBall

My old screen name was Jeremiah M. 
Anyway, this is Frail and Bedazzled from SP. It's on Pices Iscariot.

INTRO w/ Phaser

p is pulloff
------------------------------------------------------------------------------
---------------------------------------
------------------------------------------------------------------------------
---------------------------------------
------------------------------------------------------------------------------
---------------------------------------
------------------------------------------------------------------------------
---------------------------------------
------------------------------------------------------------------------------
---------------------------------------
---0---0---0--5p0---0---0---0---0---0--5p0---0---0---0---0---0---5p0------0----0----0--5---0---5---------------------------------------------------------------------------------------------------------------------
------------------------------------------------------------------------------ --------------------------------------- ------------------------------------------------------------------------------ --------------------------------------- ------------------------------------------------------------------------------ --------------------------------------- ------------------------------------------------------------------------------
------------------------7--7--7---7----0---0---0--5p0---0---0---0---0---0--5p0---0---0---0---0---0---5p0------0----0----0--5--0---5-
Then the main riff; ------------------------------------------------------------------------------ ---------------------------------------- ------------------------------------------------------------------------------ ---------------------------------------- ------------------------------------------------------------------------------ ----------------------------------------
---7---7---7--7------7----7---7---7---7--7------7---7---7---7---7---7---------7----7-----7--7--7--7------0---0---0--5p0---0---0---0---0---0--5p0---0---0---0---0---0---5p0------0----0----0--5--0--5-------------------------------------------------------------------------------------------------------------------------
------------------------------------------------------------------------------ ---------------------------------------- ------------------------------------------------------------------------------ ---------------------------------------- ------------------------------------------------------------------------------ ----------------------------------------
---7---7---7---7-------7--7---7----7--7---7------7---7---7---7---7---7----------7---7---7---7--7--7-----0---0---0---5p0---0---0---0---0---0--5p0---0---0---0---0---0---5p0------0----0---0--5--0--5--
Then This; ------------------------------------------------------------------------------ ---------------------------------------- ------------------------------------------------------------------------------ ---------------------------------------- ------------------------------------------------------------------------------ ----------------------------------------
---7---7---7---7---7---7---7---7---7---7---7---7---7---7---7---7---7---7---7---7---7--7------------------0---0---0---5---0---0---0---0---0---5---0---0---0---0---0---5---0---0---0---0---0--5-------------------------------------------------------------------------------------------------------------------------------------
------------------------------------------------------------------------------ ---------------------------------------- ------------------------------------------------------------------------------ ---------------------------------------- ------------------------------------------------------------------------------ ----------------------------------------
---7---7---7---7---7---7---7---7---7---7---7---7---7---7---7---7---7---7---7---7---7---7--7--7--7-----0---0---0---0---0---5---0---0---0---0---0---5---0---0---0---0---0---5---0---0---0---0--5--0--5------------------------------------------------------------------------------------------------------------------------
Play that twice. I'm not sure about this part Then this solo type thingy;
--9---7---9-----9---7---9------9---7---9------------------------------------------------------------------------------------8---------------8----------------8------7---8---7-----------------------------------------------------------------------------------------------------------------------7----9-------------------------------------------------------------------------------------------------------------------------------------------------------------------------------------------------------------------------------------------------------------------------------------------------------------------------------------------------------------------------------------------------
Then comes the part with just Billy singing and the bass drum and then play the first riff a couple of times until this part comes in- ------------------------------------------------------------------------------ --------------------------------------- ------------------------------------------------------------------------------ --------------------------------------- ------------------------------------------------------------------------------ ---------------------------------------
---------------------7----7---7---7---7---7---7--7---7---7---7----7--7---7---7----7------------------------5p-4p-0---0---0---0---0---0---0---0---0---5---0---5---0---5---0---5---0---5-------------------------------------------------------------------------------------------------------------------------------------------
This is played a couple of times then play this at the end once
A-----5---5---5---5---5---5---E-----0---3---0---3---0---3---
Here is how I play the solo, it sounds right but might not be in the right key.
---------------------------------------------------------------------------------------------------------------------------------------------------------------------------------------------------------------------------11s12--12--12---12s14--14--14--14s16--16--16---16s14--14--14---14s12------------------------------------------------------------------------------------------------------------------------------------------------------------------------------------------------------------------------------------------------------------------------------------------------------------------------------------
cont. ------------------------------------------------------------------------------ ---------------------------- ------------------------------------------------------------------------------ ---------------------------- -------12---12--12p11---12b14-----14---16---11b13---12b14---11----9b11-------- -- ------------------------------------------------------------------------------ ---------------------------- ------------------------------------------------------------------------------ ---------------------------- ------------------------------------------------------------------------------ ---------------------------- The last three chords are D A G ============================================================================== ========********************************************************************** ******************************************************************** ============================================================================== ======== ****************************************************************************** ************************************************************ IF ANYONE HAS ANYTHING FROM FROM; TOAD THE WET SPROCKET SMASHING PUMPKINS OASIS BUSH ==OR== SEAWEED PLEASE POST IT
Tap to rate this tab
 
# A B C D E F G H I J K L M N O P Q R S T U V W X Y Z