Smashing Pumpkins - Stumbleine tab

#
Date: Fri, 26 Jan 96 14:04:21 EST
From: Mark Palmer 
Subject: TAB: Stumbleine by Smashing Pumpkins

                     Stumbleine - Smashing Pumpkins                                                                               
                       Written By - Billy Corgan
              Transcribed By - BUGG_SUPERSTAR@S-GRIFFIN.COM
		
		* Tuning - Eb,Ab,Db,Gb,Bb,Eb *

	This is a Beautiful Song of off Mellon Collie, it took me
	an extremely long time to transcribe, and I think its 
	pretty accurate through most of the song.  This is the most
	organized way I could come up with to show each part.  The
	song is generally easy, and will come along with practice :)



   *1

Eb-|-2---------2---------3---------2----------------------------------|Bb-|------------------------------------------------------------------|Gb-|-----0-------0---0-------0-------0---0----------------------------|Db-|---4---4---------------5---5-------4------------------------------|Ab-|-5-------------5-----5--------------------------------------------|Eb-|------------------------------------------------------------------|
*2
Eb-|------------------------------------------------------------------|Bb-|------------------------------------------------------------------|Gb-|------------------------------------------------------------------|Db-|---0-------0---0-----0--------0-----------------------------------|Ab-|-----9---9---------9--------7-------------------------------------|Eb-|-7-----7-----7---7-----0--5-------5-------------------------------|
*3
Eb-|------------------------------------------------------------------|Bb-|------------------------------------------------------------------|Gb-|------------------------------------------------------------------|Db-|---0-------0---0-----0--------0----------0-----0----------0-----0-|Ab-|-----9---9---------9--------7----------5-----5----------7-----7---|Eb-|-7-----7-----7---7-----0--5-----5--0-3-----3-----3--/--5-----5----|
Eb-|------------------------------------------------------------------|Bb-|------------------------------------------------------------------|Gb-|------------------------------------------------------------------|Db-|----------0-------0---0---------0-----0---0--------0-----0---0----|Ab-|-------10------10-------------5-----5------------7-----7----------|Eb-|-5-/-8-------8------8----0--3-----3-----3---/--5-----5-----5------|
Eb-|------------------------------------------------------------------|Bb-|------------------------------------------------------------------|Gb-|------------------------------------------------------------------|Db-|-----0-----0----0-------------------------------------------------|Ab-|---9-----9--------------------------------------------------------|Eb-|-7-----7-----7----------------------------------------------------|
*4
Eb-|------------------------------------------------------------------|Bb-|------------------------------------------------------------------|Gb-|------------------------------------------------------------------|Db-|---0-------0---0-----0--------0----------0-----0----------0-----0-|Ab-|-----9---9---------9--------7----------5-----5----------7-----7---|Eb-|-7-----7-----7---7-----0--5-----5--0-3-----3-----3--/--5-----5----|
Eb-|------------------------------------------------------------------|Bb-|------------------------------------------------------------------|Gb-|------------------------------------------------------------------|Db-|----------0-------0---0---------0-----0---0--------0-----0---0----|Ab-|-------10------10-------------5-----5------------7-----7----------|Eb-|-5-/-8-------8------8----0--3-----3-----3---/--5-----5-----5------|
Eb-|------------------------------------------------------------------|Bb-|------------------------------------------------------------------|Gb-|-----0-----0-----------0-----------------------------------0------|Db-|---4-----4-----4-----4----------0--------0-----0---0-----4--------|Ab-|-2-----2-----2-----5----------7--------5-----5---------5----------|Eb-|-------------------------0--5-----0--3-----3-----3----------------|
Eb-|------------------------------------------------------------------|Bb-|------------------------------------------------------------------|Gb-|------------------------------------------------------------------|Db-|--------0-------0------0---0-------0------0----0-----0-----0---0--|Ab-|------7--------5-----5----------10-----10----------5-----5--------|Eb-|-0--5-----0--3-----3-----3----8------8------8----3-----3-----3----|
Eb-|------------------------------------------------------------------|Bb-|------------------------------------------------------------------|Gb-|-----0------------------------------------------------------------|Db-|---4----------0--------0-----0-----------0--------0--------0------|Ab-|-5----------7--------5-----5-----------0--------0--------0--------|Eb-|-------0--5-----0--3-----3-----3-/--10-----0--5-----0--3----------|
Eb-|------------------------------------------------------------------|Bb-|------------------------------------------------------------------|Gb-|------------------------------------------------------------------|Db-|-----0---------0-----0---0-------0-----0--------------------------|Ab-|---0---------9-----9-----------5-----5----------------------------|Eb-|-3-----3-/-8-----8-----8-----3-----3-----3------------------------|
*5
Eb-|------------------------------------------------------------------|Bb-|------------------------------------------------------------------|Gb-|------------------------------------------------------------------|Db-|-----0------------------------------------------------------------|Ab-|---7--------------------------------------------------------------|Eb-|-5-----5----------------------------------------------------------|
Structure - *1,*2,*1,*2,*1,*3,*1,*2,*1,*2,*1,*4,*5,*1,*2,*1,*2,*1,*4,*1,*2 The Above may Look Complicated, but its just the Structure of The Song. You can find it out easily enough by listening to it, this is just a guide, I'm pretty sure its correct. As Usual, if You Have any Questions/Comments Email me at the Address at the Top..... Enjoy :) Tabbed by Brian (Ansigod) McCall STUMBELEINE - by The Smashing Pumpkins from Mellon Collie and =========== the Infinite Sadness Note: This is about as close as I can get. If you see any obvious mistakes or alternate (easier and more correct) chords please mail me. I'll check it out and if it's right I'll correct the tab and credit you. Tuned to Eb *1 G1 Acoustic
|----------------------------------------------------------------|-7-------7-------8-------7--------------------------------------|-----0-----0---0-------------0----------------------------------|-4-------4-------5---5---4-----------4---4-----------4-------0--|---5---5-----5-----5---5---5---5---5---5---5---5---5-------5---5|---------------------------------7-----------7---7-----7-5------
|----------------------------------------------------------------|-7-------7-------8-------7--------------------------------------|-----0-----0---0-------------0----------------------------------|-4-------4-------5---5---4-----------4---4-----------4-------0--|---5---5-----5-----5---5---5---5---5---5---5---5---5-------5---5|---------------------------------7-----------7---7-----7-5------
|----------------------------------------------------------------|-7-------7-------8-------7--------------------------------------|-----0-----0---0-------------0----------------------------------|-4-------4-------5---5---4-----------4---4-----------4-------0--|---5---5-----5-----5---5---5---5---5---5---5---5---5-------5---5|---------------------------------7-----------7---7-----7-5------
|----------------------------------------------------------------|----------------------------------------------------------------|----------------------------------------------------------------|-----0---2-----------0---2-----------0---0-----------0---0------|---5---5---5---5---5---5---5---5---5---5---5---5---5---5---5---5|-3-----------3---5-----------5---8-----------8---3-----------3--
|----------------------------------------------------------------|----------------------------------------------------------------|----------------------------------------------------------------|-----0---0-----------0---0--------------------------------------|---5---5---5---5---5---5---5---5--------------------------------|-5-----------5---7-----------7----------------------------------
|----------------------------------------------------------------|-7-------7-------8-------7--------------------------------------|-----0-----0---0-------------0----------------------------------|-4-------4-------5---5---4-----------4---4-----------4-------0--|---5---5-----5-----5---5---5---5---5---5---5---5---5-------5---5|---------------------------------7-----------7---7-----7-5------
|----------------------------------------------------------------|-7-------7-------8-------7--------------------------------------|-----0-----0---0-------------0----------------------------------|-4-------4-------5---5---4-----------4---4-----------4-------0--|---5---5-----5-----5---5---5---5---5---5---5---5---5-------5---5|---------------------------------7-----------7---7-----7-5------
|----------------------------------------------------------------|-7-------7-------8-------7--------------------------------------|-----0-----0---0-------------0----------------------------------|-4-------4-------5---5---4-----------4---4-----------4-------0--|---5---5-----5-----5---5---5---5---5---5---5---5---5-------5---5|---------------------------------7-----------7---7-----7-5------
|----------------------------------------------------------------|----------------------------------------------------------------|----------------------------------------------------------------|-----0---2-----------0---2-----------0---0-----------0---0------|---5---5---5---5---5---5---5---5---5---5---5---5---5---5---5---5|-3-----------3---5-----------5---8-----------8---3-----------3--
|-------------------------------------------------------------------|-------------------------------------------------------------------|-------------------------0-----0-------0--------------------0------|-----0---0-----------0---0---0------------------0-------0-----0---0|---5---5---5---5---5---5---5---------9--------5---5---5---5-----5--|-5-----------5---7---------------/10-----10-8-------3--------------
|--------------------------------------------------------------------|--------------------------------------------------------------------|-------0--------------------0---------------------------------------|----------------0-------0-----0---0------0---0-----------0---0------|-----9--------5---5---5---5-----5------5---5---5---5---5---5---5---5|-/10-----10-8-------3---------------/8-----------8---3-----------3--
|--------------------------------------------------------------------|--------------------------------------------------------------------|-------0--------------------0---------------------------------------|----------------0-------0-----0---0------0---0-----------0---0------|-----9--------5---5---5---5-----5------5---5---5---5---5---5---5---5|-/10-----10-8-------3---------------/8-----------8---3-----------3--
|----------------------------------------------------------------|----------------------------------------------------------------|----------------------------------------------------------------|-0-------------0------------------------------------------------|-5-----------5---5----------------------------------------------|-7---------5----------------------------------------------------
|----------------------------------------------------------------|-7-------7-------8-------7--------------------------------------|-----0-----0---0-------------0----------------------------------|-4-------4-------5---5---4-----------4---4-----------4-------0--|---5---5-----5-----5---5---5---5---5---5---5---5---5-------5---5|---------------------------------7-----------7---7-----7-5------
|----------------------------------------------------------------|-7-------7-------8-------7--------------------------------------|-----0-----0---0-------------0----------------------------------|-4-------4-------5---5---4-----------4---4-----------4-------0--|---5---5-----5-----5---5---5---5---5---5---5---5---5-------5---5|---------------------------------7-----------7---7-----7-5------
|----------------------------------------------------------------|-7-------7-------8-------7--------------------------------------|-----0-----0---0-------------0----------------------------------|-4-------4-------5---5---4-----------4---4-----------4-------0--|---5---5-----5-----5---5---5---5---5---5---5---5---5-------5---5|---------------------------------7-----------7---7-----7-5------
|----------------------------------------------------------------|----------------------------------------------------------------|----------------------------------------------------------------|-----0---2-----------0---2-----------0---0-----------0---0------|---5---5---5---5---5---5---5---5---5---5---5---5---5---5---5---5|-3-----------3---5-----------5---8-----------8---3-----------3--
|---------------------------------------------------|---------------------------------------------------|-----------------------0--------------------0------|-----0---0----------------------0-------0-----0---0|---5---5---5---5-----9--------5---5---5---5-----5--|-5-----------5---/10-----10-8-------3--------------
|--------------------------------------------------------------------|--------------------------------------------------------------------|-------0--------------------0---------------------------------------|----------------0-------0-----0---0------0---0-----------0---0------|-----9--------5---5---5---5-----5------5---5---5---5---5---5---5---5|-/10-----10-8-------3---------------/8-----------8---3-----------3--
|--------------------------------------------------------------------|--------------------------------------------------------------------|-------0--------------------0---------------------------------------|----------------0-------0-----0---0------0---0-----------0---0------|-----9--------5---5---5---5-----5------5---5---5---5---5---5---5---5|-/10-----10-8-------3---------------/8-----------8---3-----------3--
|--------------------------------|--------------------------------|--------------------------------|-----4---4-----------4-------0--|---5---5---5---5---5-------5---5|-7-----------7---7-----7-5------
|----------------------------------------------------------------|-7-------7-------8-------7------------------------------------0-|-----0-----0---0-------------0----------------------------------|-4-------4-------5---5---4-----------4---4-----------4----------|---5---5-----5-----5---5---5---5---5---5---5---5---5-------5----|---------------------------------7-----------7---7-----7-5------
From: RastamanB@aol.com Date: Fri, 5 Jan 1996 00:02:57 -0500 Subject: Real tabulature for Stumbline by The Smashing Pumpkins ----------------Stumbline-------------The Smashing Pumpkins------------ = tabbed by Mike Ward (WardM@kenyon.edu) =0D
=0De--------------------------------------------------------------------\B--7-------7-----------8-----------7---------------------------------|G------0------0-----0--0-----0----------0----------------------------|D----0-----0-----0--------0-----------0---0--------------------------|A--9-----9----------------------9--9---------------------------------|E--------------------------------------------------------------------/
=0Dthen...=0De--------------------------------------------------------------------\B--------------------------------------------------------------------|G--------------------------------------------------------------------|D-------0--------0-----0--------0------------0-----------------------|A----9--------9--------------9------------7--------------------------|E--7-------7--------7-----7--------7---5--------*0*-repeat first part/=0D
* Sometimes this is a five, when applicable in the song. When it is a five, the correct notes can be found by moving = the fingers on the E and A strings along the fretboard while still playing the same pattern...just listen to the song to find the right notes. There are other little variations but you should be able to = figure them out. =0D I'm almost positive that this version is right. It's at least a lot = better than the other versions currently posted. It sure isn't random picking. =0D This song was tabbed with help from Bill Ward. (he worked the computer) --PART.BOUNDARY.0.15913.mail04.mail.aol.com.820818176-- Date: Thu, 16 Nov 1995 14:26:14 -0500 (EST) From: "Justin R. Kunz" Subject: TAB: Stumbleine by Smashing Pumpkins "Stumbleine" by the Smashing Pumpkins Taken from the album Mellon Collie and the Infinite Sadness Lyrics written by Billy Corgan and music by the Smashing Pumpkins Transcribed by Justin Kunz, kunjust@lyco.lycoming.edu Well this is all from ear, and the majority of this sounds like it is concentrated on picking the D and G strings while adding either the bass E or high E, and a few times both. Unlike Landslide, which is picked pretty randomly, I'm pretty sure there is a followed pattern. Suggestions, corrections, and comments are welcome. Oh yeah, I almost forgot. Tuned down 1/2 step like all of Mellon Collie. s= slide
INTRO:Eb-----2---------2---------3--------2---------------------------------------Bb------------------------------------------------------------------------Gb--------0---0-----0---0----0---0----0---0-------------------------------Db-----0----0----0----0----0---0----0---0----------------------------------Ab-----------------------------------------------------------------------Eb------------------------------------------------------------------------
FIG 1 (VERSE):Eb---------------------------------------2-------2-------3------2-------Bb----------------------------------------------------------------------Gb-------0--------0--------0--------0------0---0---0---0--0---0--0---0--Db-----0---0----0---0----0---0----0---0------0-------0------0------0----Ab----------------------------------------------------------------------Eb---7--------7--------7--------5--------------------------------------- (Just single pick the Eb string,it's easier)Boredoms in the bathroom shaking out the loose teethSally's in the stirrups, claiming her destinyAnd nobody nowhere understands anything (stop in middle of Fig 1 to Fig 2)
Eb---------------------------------------------------------------------Bb---------------------------------------------------------------------Gb----0------0------0-----0--------0----0----0----0----0----0---0---0--Db---0-0----0-0----0-0---0-0------0-0--0-0--0-0--0-0--0-0--0-0-0-0-0-0-Ab---------------------------------------------------------------------Eb--3------3------5-----5---s->-10---10----3----3----5----5---7---7----
About me And all...... my dreams Lost at sea (Intro again) (Back to FIG 1) Jack it up Judy, set your heart alight Mayfair mistress of the satellites Misspent youth- faking up a rampage... (FIG 2) to hold off The real...... slaves Paid off and staid (directly to:) FIG 3 (CHORUS)
Eb-------------------------|------------------|---------------------------------Bb-------------------------|------------------|---------------------------------Gb---------0----0---0---0--|---0---0---0---0--|----0----0----0----0---------------Db--------0-0--0-0-0-0-0-0-|--0-0-0-0-0-0-0-0-|---0-0--0-0--0-0--0-0---------------Ab-------------------------|------------------|--------------------------------Eb--s->-10----5---3---3----|10---5---3---3----|-10---10----3----3-------------------(for full effect, each time slide your bass Eb down as you are picking)
And what you never knew | Can never get to you | So fake it (Repeat chorus again) I'll be your stumbleine | I'll be your super queen | And make you Back to FIG 1: (for this first one just slide up to 7th fret and wait until 5th bass picking part would normally start then pick it up) Jukebox fuckup, hanging round the drugstore No matter what you say he'll be back for more Mommy's in the manger with the little kids She's got more reasons, she's got my forgets FIG 2: Of tears and idle threats misplaced FIG 3: And no matter what they do | They can't get to you | So fake it I'll be your stumbleine | I'll be your super queen | And you make me Back to FIG 1: Come around Ruby, I could never sleep alone (and stop right before the intro picking part) YOUR WELCOME!! Justin Kunz #----------------------------------PLEASE NOTE---------------------------------# #This file is the author's own work and represents their interpretation of the # #song. You may only use this file for private study, scholarship, or research. # #------------------------------------------------------------------------------# # Date: Mon, 13 Oct 1997 00:37:38 -0700 From: King of Gloom Subject: TAB: 'Stumbeline' by 'Smashing Pumpkins' Song Title: Stumbleine Album: Mellon Collie and the Infinite Sadness Artist: The Smashing Pumpkins Transcribed by Arthur Lau Please visit my Smashing Pumpkins website at http://www.geocities.com/SunsetStrip/Towers/8536 This tab took me a hell of a lot of time to figure out so if you have any corrections, comments or thank-you's, please send mail to shakedown_1979@rocketmail.com. Hope you like the tab ! :) Note: I find a thumb pick very usefull in playing this song. Listen to the song to figure out when the parts of this tab are played. Key: / Slide
{Fig. 1} {Fig. 2}Eb-|-----------------------------------|-----------------------------------|Bb-|-7-------7-------8---------7---0---|-----------------------------------|Gb-|-----0-----0---0------0--------0---|-----------------------------------|Db-|---0---------0------0--------0---0-|-----0-----0---0-----0--------0----|Ab-|-9-----9---------10-----10-9-------|---9-----9---------9--------7------|Eb-|-----------------------------------|-7-----7-----7---7-----7-5------0--|
{Fig.3} {Fig. 4} Eb-|-----------------------------------|------------------------------------|Bb-|-----------------------------------|------------------------------------|Gb-|---------------------0-----0-------|------------------------------------|Db-|-----0-----0-----------------------|------0------0----0---0-------0-----|Ab-|---5-----5-----5---7-----7---------|---10-----10---10--(5)--5---5-----5-|Eb-|-3-----3-----3---5-----5-----5/8---|-8------8------8----3-----3-----3---|
{Fig.5} {Fig.6}Eb-|-----------------------------------|-------------------------------------|Bb-|-----------------------------------|-------------------------------------|Gb-|-----------------------------------|--------0---------------------0------|Db-|-----0-----0---------0-----0-------|----------------0-------0------------|Ab-|---7-----7---------9-----9-----9---|-----12-------7-------5-----5--------|Eb-|-5-----5-----5/7-7-----7-----7-----|-/10------0-5-----0-3-----3-----3/---|
stumbleine billy corgan © 1995 cinderful music/chrysalis songs (bmi) boredoms in the bathroom shaking out the loose teeth sally's in the stirrups claiming her destiny and nobody nowhere understands anything about me and all my dreams lost at sea jack it up judy set your heart alight mayfair mistress of the satellites misspent youth-faking up a rampage to hold off the real slaves paid off and staid and what you never knew can never get to you so fake it i'll be your stumbleine i'll be your super queen and make you jukebox f***up hanging round the drugstore no matter what you say he'll be back for more mommy's in the manger with the little kids she's got her reasons, got my forgets of tears and idle threats misplaced and no matter what they do they can't get to you so fake it i'll be your stumbleine i'll be your super queen and make you me come around ruby i could never sleep alone
Tap to rate this tab
 
# A B C D E F G H I J K L M N O P Q R S T U V W X Y Z