Smashing Pumpkins - Unknown 2 tab

#
Tabbed by Brian (Ansigod) McCall 

UNKNOWN - by Smashing Pumpkins from the
=======   Mellon Collie Demo Tape

*1

G1 Heavy Distortion

|------------------------------------------------------|------------------------------------------------------|-----------------------9--9-9-9-9-11--11-11-11-11-----|-6--6--6-4-------------9--9-9-9-9-11--11-11-11-11-----|-6--6------6-5-4---4-6-7--7-7-7-7-9---9--9--9--9------|-4--4------------7------------------------------------
|------------------------------------------------------|------------------------------------------------------|------------------------------------------------------|-9/11-11-11-11--11-11-11-11-11-11-11-11---------------|-9/11-11-11-11--11-11-11-11-11-11-11-11---------------|-7/9--9--9--9---9--9--9--9--9--9--9--9----------------
G1|------------------------------------------------------|------------------------------------------------------|---------------------------------------------9--9-9---|-6--6--6-4-------------6--6--6-4-------------9--9-9---|-6--6------6-5-4---4-6-6--6------6-5-4---4-6-7--7-7...see above|-4--4------------7-----4--4------------7--------------
G2|------------------------------------------------------|-----------------------------------2-4-2--------------|-----------------------------4-3-4-------4-3-4--------|-6--6--6-4-------------6--6---------------------------|-6--6------6-5-4---4-6-6--6---------------------------|-4--4------------7-----4--4---------------------------
*2
|------------------------------------------------------|------------------------------------------------------|----------------------9--9--9-9-11-11-----------------|-9--9--9-9-11-11-1111-9--9--9-9-11-11-11-10-----------|-9--9--9-9-11-11-1111-7--7--7-7-9--9--11-10-----------|-7--7--7-7-9--9--9-9------------------9--8------------
|------------------------------------------------------|------------------------------------------------------|----------------------9--9--9-9-11-11-----------------|-9--9--9-9-11-11-1111-9--9--9-9-11-11-11-10-----------|-9--9--9-9-11-11-1111-7--7--7-7-9--9--11-10-----------|-7--7--7-7-9--9--9-9------------------9--8------------
|------------------------------------------------------|------------------------------------------------------|----------------------9--9--9-9-11-11-----------------|-9--9--9-9-11-11-1111-9--9--9-9-11-11-11-10-----------|-9--9--9-9-11-11-1111-7--7--7-7-9--9--11-10-----------|-7--7--7-7-9--9--9-9------------------9--8------------
|------------------------------------------------------|------------------------------------------------------|------------------------------------------------------|-9--9--9-9-11-11-1111-4-4-4-4-4-4-4-4-----------------|-9--9--9-9-11-11-1111-4-4-4-4-4-4-4-4-----------------|-7--7--7-7-9--9--9-9--2-2-2-2-2-2-2-2-----------------
*3
|-----------------------------------------------------------|-----------------------------------------------------------|---------------9-------------------9-------------------9---|-4/6-6-6-6-X-X-9--9--4/6-6-6-6-X-X-9--9--4/6-6-6-6-X-X-9--9|-4/6-6-6-6-X-X-7--9--4/6-6-6-6-X-X-7--9--4/6-6-6-6-X-X-7--9|-2/4-4-4-4-X-X----7--2/4-4-4-4-X-X----7--2/4-4-4-4-X-X----7
|------------------------------------------------------|------------------------------------------------------|-------------------8--8--8--11-11-11------------------|-9/11-11-11-11-X-X-8--8--8--11-11-11------------------|-9/11-11-11-11-X-X-6--6--6--9--9--9-------------------|-7/9--9--9--9--X-X-6--6--6--9--9--9-------------------
repeat:
|------------------------------------------------------|------------------------------------------------------|-----------------------9--9-9-9-9-11--11-11-11-11-----|-6--6--6-4-------------9--9-9-9-9-11--11-11-11-11-----|-6--6------6-5-4---4-6-7--7-7-7-7-9---9--9--9--9------|-4--4------------7------------------------------------
|------------------------------------------------------|------------------------------------------------------|------------------------------------------------------|-9/11-11-11-11--11-11-11-11-11-11-11-11---------------|-9/11-11-11-11--11-11-11-11-11-11-11-11---------------|-7/9--9--9--9---9--9--9--9--9--9--9--9----------------
|------------------------------------------------------|------------------------------------------------------|----------------------9--9--9-9-11-11-----------------|-9--9--9-9-11-11-1111-9--9--9-9-11-11-11-10-----------|-9--9--9-9-11-11-1111-7--7--7-7-9--9--11-10-----------|-7--7--7-7-9--9--9-9------------------9--8------------
|------------------------------------------------------|------------------------------------------------------|----------------------9--9--9-9-11-11-----------------|-9--9--9-9-11-11-1111-9--9--9-9-11-11-11-10-----------|-9--9--9-9-11-11-1111-7--7--7-7-9--9--11-10-----------|-7--7--7-7-9--9--9-9------------------9--8------------
|------------------------------------------------------|------------------------------------------------------|----------------------9--9--9-9-11-11-----------------|-9--9--9-9-11-11-1111-9--9--9-9-11-11-11-10-----------|-9--9--9-9-11-11-1111-7--7--7-7-9--9--11-10-----------|-7--7--7-7-9--9--9-9------------------9--8------------
|------------------------------------------------------|------------------------------------------------------|------------------------------------------------------|-9--9--9-9-11-11-1111-4-4-4-4-4-4-4-4-----------------|-9--9--9-9-11-11-1111-4-4-4-4-4-4-4-4-----------------|-7--7--7-7-9--9--9-9--2-2-2-2-2-2-2-2-----------------
Repeat *3
*4 (hold)|------------------------------------------------------|------------------------------------------------------|-9-------------6------9--11---------------------------|-9--------6----6--9---9--11---------------------------|-7--------6----4--9---7--9----------------------------|-7--------4-------7---7--9----------------------------
Solo
|------------------------------------------------------|--------------------7fbr-9fbr9-9...-------------------|-6fb(6)(6)(6)-4h6p4-----------------------------------|------------------------------------------------------|------------------------------------------------------|------------------------------------------------------ ^grad bend, pick while bending
Repeat *3 *5 G1
|------------------------------------------------------|------------------------------------------------------|-------9--9--------9-11-------------------------------|-6--6--9--9--9--9--9-11--11---------------------------|-6--6--7--7--9--9--7-9---11---------------------------|-4--4--------7--7--7-----9---------------------------- ^repeatG2
|------------------------------------------------------|------9-7----------------7fbr---7----------9-7--------|----------8-7-6---6-8---------9---9-6----------8-7-6--|-6--6-----------9-----9---------------6--6-----------9|------------------------------------------------------|------------------------------------------------------
|------------------------------------------------------|-------7-------7--------------------------------------|-6-8------9--9---9--6---------------------------------|-----9------------------------------------------------|------------------------------------------------------|------------------------------------------------------ ^repeat
*6
|---------------------------------------------------|---|---------------------------------------------------|---|-----------------------4------------------------4--|---|-4/6-X-X-4/6-X-X-6-6-X-4--4/6-X-X-4/6-X-X-6-6-X-4--|---|-4/6-X-X-4/6-X-X-6-6-X-2--4/6-X-X-4/6-X-X-6-6-X-2--|/9\|-2/4-X-X-2/4-X-X-4-4-X----2/4-X-X-2/4-X-X-4-4-X----|--- ^repeat
Please send corrections, flames, and comments to the address at the top.
Tap to rate this tab
 
# A B C D E F G H I J K L M N O P Q R S T U V W X Y Z