Smashing Pumpkins - So So Pretty tab

Guitar 1 x6|---0------0------0----3--3-3-||-----0------0------0--0--0-0-||----------------------0--0-0-||--------2------3-------------||-3---------------------------||-----------------------------|
|Guitar 2 x6|-----------------------------||-----0------0------0---------||---0------0------0---------0-||--------2------3------5-/7---||-3---------------------------||-----------------------------|
|-------------------||-6--------8--------||-0--------0--------||-X--------X--------||-8--------8--------||-------------------|
Guitar 1 x4|---0------0------0----3--3-3-||-----0------0------0--0--0-0-||----------------------0--0-0-||--------2------3-------------||-3---------------------------||-----------------------------|
|Guitar 2 x4|-----------------------------||-----0------0------0---------||---0------0------0---------0-||--------2------3------5-/7---||-3---------------------------||-----------------------------|
|-------------------3--------3--------||-3--------1--------0--------0--------||-0--------0--------0--------0--------||-X--------X--------0--------0--------||-5--------3--------X--------X--------||-------------------3--------3--------|
x2|-------------------------------------||-1--------5--------6--------8--------||-0--------0--------0--------0--------||-X--------X--------X--------X--------||-3--------7--------8--------8--------||-------------------------------------|
|----------------------------3--------||-3--------5--------6--------0--------||-0--------0--------0--------0--------||-X--------X--------X--------0--------||-5--------7--------8--------X--------||----------------------------3--------|
|-------------------------------------||-6--------5--------3--------3--------||-0--------0--------0--------0--------||-X--------X--------X--------X--------||-8--------7--------5--------5--------||-------------------------------------|
x2|-0--------1--------3--------1--------||-1--------1--------1--------1--------||-2--------2--------2--------2--------||-2--------2--------2--------2--------||-0--------0--------0--------0--------||-------------------------------------|
|-3--------3--------3--------3--------||-0--------0--------0--------0--------||-0--------0--------0--------0--------||-0--------0--------0--------0--------||-X--------X--------X--------X--------||-3--------1--------3--------1--------|
Guitar 1 x4|---0------0------0----3--3-3-||-----0------0------0--0--0-0-||----------------------0--0-0-||--------2------3-------------||-3---------------------------||-----------------------------|
|Guitar 2 x4|-----------------------------||-----0------0------0---------||---0------0------0---------0-||--------2------3------5-/7---||-3---------------------------||-----------------------------|
|-------------------------------------||-3--------1--------1--------5--------||-0--------0--------0--------0--------||-X--------X--------X--------X--------||-5--------3--------3--------7--------||-------------------------------------|
|-------------------------------------||-6--------6--------6--------3--------||-0--------0--------0--------0--------||-X--------X--------X--------X--------||-8--------8--------8--------5--------||-------------------------------------|
|-------------------------------------||-1--------5--------6--------3--------||-0--------0--------0--------0--------||-X--------X--------X--------X--------||-3--------7--------8--------5--------||-------------------------------------|
|-------------------------------------||-1--------5--------6--------6--------||-0--------0--------0--------0--------||-X--------X--------X--------X--------||-3--------7--------8--------8--------||-------------------------------------|
|----------------------------3--------||-3--------5--------6--------0--------||-0--------0--------0--------0--------||-X--------X--------X--------0--------||-5--------7--------8--------X--------||----------------------------3--------|
|-------------------------------------||-6--------5--------3--------3--------||-0--------0--------0--------0--------||-X--------X--------X--------X--------||-8--------7--------5--------5--------||-------------------------------------|
End on|-0----3--------||-1----1--------||-0----0--------||-2----2--------||-3----3--------||---------------|
Tap to rate this tab
 
# A B C D E F G H I J K L M N O P Q R S T U V W X Y Z