Smashing Pumpkins – Superchrist tab

***********************************************************************
-----------------------------------------------------------------------

--title: Superchrist
--tuning: Db Gb B E Ab Db


|--------|(x4)|--------||--------||--------||--------||10h12-0-|
|-----------------------------------------|(x4)|-----------------------------------------||-----------------------------------------||-----------------------------------------||-----------------------------------------||10h12-0----10h12-0----10h12-0----10h12-0-|
|---------------------------------------------------------------|(x4)|---------------------------------------------------------------||--------14b15r14---------14b15r14---------14b15r14---15~---16~-||--------x----------------x----------------x----------x-----x---||--------12b13r12---------12b13r12---------12b13r12---13~---14~-||10h12-0----------10h12-0----------10h12-0----------0-----0-----|
|--------||--------||--------||--------||--------||10h12-0-|
|-----------------------------------------|(x4)|-----------------------------------------||-----------------------------------------||-----------------------------------------||-----------------------------------------||10h12-0----10h12-0----10h12-0----10h12-0-|
|---------------------------------------------------------------|(x4)|---------------------------------------------------------------||--------14b15r14---------14b15r14---------14b15r14---15~---16~-||--------x----------------x----------------x----------x-----x---||--------12b13r12---------12b13r12---------12b13r12---13~---14~-||10h12-0----------10h12-0----------10h12-0----------0-----0-----|
|--------||--------||--------||--------||--------||10h12-0-|
|------------------------------------------------------------------------|(x8)|------------------------------------------------------------------------||------------------------------------------------------------------------||------------------------------------------------------------------------||------------------------------------------------------------------------||10-10-10-12-12-10-10-10-10-12-12-10-10-10-10-12-12-10-10-10-10-12-12-10-|pm........................................................................
|--------------------------------------------||--------------------------------------------||--------------------------------------------||--------------------------------------------||--------------------------------------------||12/-----------------------------------10h12-||12/-0-0-10h12-0-0-10h12-0-0-10h12-0-0-------|
|----------------------------------------|(x6)|----------------------------------------||----------------------------------------||----------------------------------------||----------------------------------------||----------------------------------10h12-||0-0-10h12-0-0-10h12-0-0-10h12-0-0-------|
|-------------------------------------------||-------------------------------------------||-------------------------------------------||-------------------------------------------||-------------------------------------------||----------------------------------10h12----||0-0-10h12-0-0-10h12-0-0-10h12-0-0-------12/|
Interlude (w/chorus and slight delay)*|--------------------------------------------------------------||--------------------------------------------------------------||--------------------------------------------------------------||----7-7-5-5---------------7-7-5-5-----------------------------||7-7---------9-9-7-----7-7---------9-9-7-----5-----7-----5-----||--------------------------------------------------------------|
--------------------------------|--------------------------------|--------------------------------|--------------------------------|5/7-5/7-5/7-5/7-5/7-5/7-5/7-5/7-|--------------------------------|*
|--------------------------------------------------------------------------------|x4|--------------------------------------------------------------------------------||14/13-----14/13-----14/13-----14/13-----16/14-----16/14-----16/14-----16/14-----||x---------x---------x---------x---------x---------x---------x---------x---------||12/11-----12/11-----12/11-----12/11-----14/12-----14/12-----14/12-----14/12-----||------0-0-------0-0-------0-0-------0-0-------0-0-------0-0-------0-0-------0-0-|
|----------------------------------------|(x20)|----------------------------------------||----------------------------------------||----------------------------------------||----------------------------------------||----------------------------------10h12-||0-0-10h12-0-0-10h12-0-0-10h12-0-0-------|
(w/distortion, chorus, and slight delay)|------------------------------------------------------------------------|(x4)|5~-5~-5~-5~-5~-5~-5~-5~-5~-5~-5~-5~-5~-5~-5~-5~-5~-5~-5~-5~-5~-5~-5~-5~-||------------------------------------------------------------------------||------------------------------------------------------------------------||------------------------------------------------------------------------||------------------------------------------------------------------------|
|----------------------------------------||----------------------------------------||----------------------------------------||----------------------------------------||----------------------------------------||----------------------------------10h12-||0-0-10h12-0-0-10h12-0-0-10h12-0-0-------|
|-------------------------------------------||-------------------------------------------||-------------------------------------------||-------------------------------------------||-------------------------------------------||----------------------------------10h12----||0-0-10h12-0-0-10h12-0-0-10h12-0-0-------12/|
LYRICS Revolution, disillusion, rise One solution, one that takes you beyond This love, am I For I, need time ----------------------------------------------------------------------- ***********************************************************************
Please rate this tab:
x1.0