Smashing Pumpkins - Disarm tab version 4

-------------------------------------------------------------------------------
	                        Disarm (Live)  - Smashing Pumpkins
-------------------------------------------------------------------------------
Tabbed by:qzuiilw	
Email:qzuiilw@hotmail.com

Tuning:Standard 

From their live album, Earphoria this is an awesome version of Disarm, check it 
out, type Disarm alternate version in youtube.


Disarm You|------------------------------------------||------------------------------------------||------------------------------------------||--2---2----0----------2---2----0----------|x2|--2---3br--2-----0----2---3br--2-----0----||--0---0----3~----2~---0---0----3~----2~---|
oh He is burnt|---------------------------------------------------------------------------||---------------------------------------------------------1-1-1-1-1-1-1-1---||-------------------------------------------------------------------------3b||-2-2-2-2--2-2-2-2--0-0-0-0-0-0-0-0-0---2-2-2-2--2-2-2-2--0-0-0-0-0-0-0-0---||-2-2-2-2--3-3-3-3--2-2-2-2-2-2-2-2-0---2-2-2-2--3-3-3-3--2-2-2-2-2-2-2-2---||-0-0-0-0--0-0-0-0--3-3-3-3-3-3-3-3-2~--0-0-0-0--0-0-0-0--3-3-3-3-3-3-3-3---|
I used to be a little|---------------------------------------------------------------------------||---------------------------------------------------------------------------||---------------------------------------------------------------------------||-2-2-2-2--2-2-2-2--0-0-0-0-0-0-0-0--222~-2-2-2-2--2-2-2-2--0-0-0-0-0-0-0-0-||-2-2-2-2--3-3-3-3--2-2-2-2-2-2-2-2--222~-2-2-2-2--3-3-3-3--2-2-2-2-2-2-2-2-||-0-0-0-0--0-0-0-0--3-3-3-3-3-3-3-3--000~-0-0-0-0--0-0-0-0--3-3-3-3-3-3-3-3-|
What's A Boy Supposed Do|---------------------------------------------------------------||---------------------------------------------------------------||---------------------------------------------------------------||-222~-2-2-2-2--2-2-2-2--0-0-0-0-0-0-0-0------------------------||-222~-2-2-2-2--3-3-3-3--2-2-2-2-2-2-2-2------------------------||-000~-0-0-0-0--0-0-0-0--3-3-3-3-3-3-3-3------------------------|
|---------------------------------------------------------------||---------00--2b--2--00---------00--2b--2-----------------------||---------00--3b--3--00---------00--3b--3--0-0-0-0-0-0-0-0------||--2b--2--00--0---0--00--2b--2--00--0---0--2-2-2-2-2-2-2-2------||--2b--2--00---------00--2b--2--00---------3-3-3-3-3-3-3-3------||--0---0-----------------0---0----------------------------------|
|---------------------------------------------------------------||---------------------------------------------------------------||--/13br-12h13br12-9--9h12-/13br-12h13br12-9---12~--------------||-------------------------------------------------11br~-11br~---||---------------------------------------------------------------||---------------------------------------------------------------|
Disarm You With A Smile|---------------------------------------------------------------||---------------------------------------------------------------||---------------------------------------------------------------||-2-2-2-2-2-2-2-2--2-2-2-2-2-2-2-2--0-0-0-0-0-0--0--0--0-0-0-0--||-2-2-2-2-2-2-2-2--3-3-3-3-3-3-3-3--2-2-2-2-2-2--2--2--0-0-0-0--||-0-0-0-0-0-0-0-0--0-0-0-0-0-0-0-0--3-3-3-3-3-3--3--3--2-2-2-2--|
To Weather In |---------------------------------------------------------------||---------------------------------------------------------------||---------------------------------------------------------------||-2-2-2-2-2-2-2-2--2-2-2-2-2-2-2-2--0-0-0-0-0-0--0--0--0-0-0-0--||-2-2-2-2-2-2-2-2--3-3-3-3-3-3-3-3--2-2-2-2-2-2--2--2--0-0-0-0--||-0-0-0-0-0-0-0-0--0-0-0-0-0-0-0-0--3-3-3-3-3-3--3--3--2-2-2-2--|
Oh He is burnt|----------------------------------------------------------------------------||----------------------------------------------------------------------------||----------------------------------------------------------------0-0-0-0-0-0-||-2-2-2-2-2-2-2-2--2-2-2-2-2-2-2-2--0-0-0-0-0-0--0--0--0-0-0-0-0-2-2-2-2-2-2-||-2-2-2-2-2-2-2-2--3-3-3-3-3-3-3-3--2-2-2-2-2-2--2--2--0-0-0-0-0-3-3-3-3-3-3-||-0-0-0-0-0-0-0-0--0-0-0-0-0-0-0-0--3-3-3-3-3-3--3--3--2-2-2-2-2-------------|
I Used To Be A Little Boy|------------------------------------------------------------||-------------------------------------------1-1-1-1-1-1-1-1--||-0-0-0-0-0-0-------------------------------0-0-0-0-0-0-0-0--||-2-2-2-2-2-2--2-2-2-2-2-2--2-2-2-2-2-2--0--2-2-2-2-2-2-2-2--||-3-3-3-3-3-3--2-2-2-2-2-2--3-3-3-3-3-3--0--3-3-3-3-3-3-3-3--||--------------0-0-0-0-0-0--0-0-0-0-0-0----------------------|
Killer in me |------------------------------------------------------------||------------------------------1-1-1-1-1-1-1-1---------------||------------------------------0-0-0-0-0-0-0-0---------------||-2-2-2-2-2-2--2-2-2-2-2-2--0--2-2-2-2-2-2-2-2---------------||-2-2-2-2-2-2--3-3-3-3-3-3--0--3-3-3-3-3-3-3-3---------------||-0-0-0-0-0-0--0-0-0-0-0-0-----------------------------------|
Killer In Me|-----------------------------------------------------------------------------||-----------------------------------------------------------------------------||-----------------------------------------------------------------------------||-2-2-2-2-2-2--2-2-2-2-2-2--0-0-0-0-0-0--2-2-2-2-2-2--2-2-2-2-2-2-0-0-0-0-0-0-||-2-2-2-2-2-2--3-3-3-3-3-3--2-2-2-2-2-2--2-2-2-2-2-2--3-3-3-3-3-3-2-2-2-2-2-2-||-0-0-0-0-0-0--0-0-0-0-0-0--3-3-3-3-3-3--0-0-0-0-0-0--0-0-0-0-0-0-3-3-3-3-3-3-|
Killer In Me|------------------------------------------------------------||------------------------------------------------------------||------------------------------------------------------------||-2-2-2-2-2-2--2-2-2-2-2-2--0-0-0-0-0-0-0--0-0---------------||-2-2-2-2-2-2--3-3-3-3-3-3--2-2-2-2-2-2-2--2-0---------------||-0-0-0-0-0-0--0-0-0-0-0-0--3-3-3-3-3-3-3--3-2---------------|
|------------------------------------------------------------||-8-8h9-10-12--12-10-12-15--15-15--15-15-15h17---------------||------0-----0---------0------0---0--0--0--0-----------------||------------------------------------------------------------||------------------------------------------------------------||------------------------------------------------------------|
|------------------------------------------------------------------------------||------------------------------------------------------------------------------||------------------------------------------------------------------------------||-2-2-2-2-2-2--2-2-2-2-2-2--0-0-0-0-0-0--2-2-2-2-2-2--2-2-2-2-2-2--0-0-0-0-0-0-||-2-2-2-2-2-2--3-3-3-3-3-3--2-2-2-2-2-2--2-2-2-2-2-2--3-3-3-3-3-3--2-2-2-2-2-2-||-0-0-0-0-0-0--0-0-0-0-0-0--3-3-3-3-3-3--0-0-0-0-0-0--0-0-0-0-0-0--3-3-3-3-3-3-|
|------------------------------------------------------------||-8-8h9-10-12--12-10-12-15--15-15--15-15-15/17-15------------||------0------0--------0------0--0---0--0--0-----------------||------------------------------------------------------------||------------------------------------------------------------||------------------------------------------------------------|
|------------------------------------------------------------||------------------------------------------------------------||------------------------------------------------------------||-2-2-2-2-2-2--2-2-2-2-2-2--0-0-0-0-0-0-0--0-0---------------||-2-2-2-2-2-2--3-3-3-3-3-3--2-2-2-2-2-2-2--0-0---------------||-0-0-0-0-0-0--0-0-0-0-0-0--3-3-3-3-3-3-3--3-2---------------|
|------------------------------------------------------------||--15--------------------------------------------------------||-----17-17-17-16-16-16-14-14--------------------------------||------------------------------------------------------------||-----------------------------14br-14br-14br-12/10-10-10-----||------------------------------------------------------------|
|------------------------------------------------------------||------------------------------------------1-1-1-------------||------------------------------------------------------------||-2-2-2-2-2-2--2-2-2-2-2-2--0-0-0-0-0-0-0--2-2-2-------------||-2-2-2-2-2-2--3-3-3-3-3-3--2-2-2-2-2-2-2--3-3-3-------------||-0-0-0-0-0-0--0-0-0-0-0-0--3-3-3-3-3-3-3--------------------|
|-------------------------------------------------------------------------------||-------------------------------------------------------------------------------||----------------------------------------------------9-7-77-7-5-55-4-44-4h5-7b--||--14p12-12-12-12\10-10-10\9-9--9-9-9brbr--7-5--5-5/----------------------------||-------------------------------------------------------------------------------||-------------------------------------------------------------------------------|
Please don't edit or claim this tab without e-mailing me first. Would love to hear your comments and please rate. ************************************ | / slide up | \ slide down | h hammer-on | p pull-off | ~ vibrato | + harmonic | x Mute note | b Bend | pb Pre-bend | br Bend release | pbr Pre-bend release | brb Bend release bend ************************************
Tap to rate this tab
 
# A B C D E F G H I J K L M N O P Q R S T U V W X Y Z