Smashing Pumpkins - Autumn tab

************************* P L E A S E  N O T E *************************

       You may only use this tab for private study, research, etc.
        Do not change, deface, mutilate, steal or alter this tab.
    You must email me first if you want to use this tab on your site.

 ************************* P L E A S E  N O T E *************************


--Title: Autumn
--Artist: The Smashing Pumpkins
--Release: Machina Acoustic Demos
--Last updated: 10/72010

--Transcription by: J Elliott Dozier
--Contact: elliott_dozier at hotmail.com

--Tuning: CFBbDGC (Standard tuning down two whole steps)


--PART 1

|-------------0----------------------------------------------||--/3-----3---------------------------3----------------------||-------0-----------------0-------0---------------0-0-----0--||--/4-------4-----------0-------2---------------0-------0----||---------------0---2-------3-------3---3/5------------------||-------------------------------------------3-------0--------|
|-------------0----------------------------------------------||---------3---------------------------3----------------------||-------0-----------------0-------0---------------0-------0--||--/4-------4-----------0-------2---------------0-------0----||---------------0---2-------3-------3---3/5------------------||-------------------------------------------3-------0--------|
|-------------0----------------------------------------------||---------3---------------------------3----------------------||-------0-----------------0-------0---------------0-0-----0--||--/4-------4-----------0-------2---------------0-------0----||---------------0---2-------3-------3---3/5------------------||-------------------------------------------3-------0--------|
|-------------0--------------------------------------------||---------3---------------------------3--------------------||-------0-----------------0-------0---------------0-0------||--/4-------4-----------0-------2---------------0-------0--||---------------0---2-------3-------3---3/5----------------||-------------------------------------------3-------0------|
--PART 2
|--------------------------*0----||------------1-------------------||--2-----2--------------2--------||------0--------------0----------||-----------------1-------1---0--||--1-------1---3-----------------|
|--------------------------*0----||------------1-------------------||--------2--------------2--------||------0--------------0----------||-----------------1-------1---0--||--1-------1---3-----------------|
|--------------------------------||------------1-------------------||--------2--------------2--------||------0--------------0----------||-----------------1-------1---0--||--1-------1---3-----------------|
|--------------------------------||------------1--------------1----||--------2--------------2--------||------0--------------0-------0--||--1-------0---------------------||--------------1--3---3---3---3--|
--PART 3
|-----------------------------0----||-------------------------------0--||---------9---------------9--------||-------9-----9---------9----------||--/7-------7---6------------------||---0---------------7-------7------|
|----------------------------0----||------------------------------0--||--------9---------------9--------||------9-----9---------9----------||----------7---6------------------||--0---------------7-------7------|
|---------------------------------||----------------------------0----||--------9---------------9--------||------9-----9---------9----------||----------7---6------------------||--0---------------7-------7------|
|-------------5---------------0----||---------------0---------------0--||---------0---------2-----2--------||-------4---------------0-------0--||--/5-------5----------------------||---------------0---2-------2--p0--|
|-----------------------------0----||-------------------------------0--||---------9---------------9--------||-------9-----9---------9----------||--/7-------7---6------------------||---0---------------7-------7------|
|---------------------------------||----------------------------0----||--------9---------------9--------||------9-----9---------9----------||----------7---6------------------||--0---------------7-------7------|
|-------------5---------------0----||---------------0---------------0--||---------0---------2-----2--------||-------4---------------0-------0--||--/5-------5----------------------||---------------0---2-------2--p0--|
|----------------------------------||-----------------------------0----||---------9---------------9--------||-------9-----9---------9----------||--/7-------7---6------------------||---0---------------7-------7---0--|
--PART 1 (again)
|-------------0----------------------------------------------||--/3-----3---------------------------3----------------------||-------0-----------------0-------0---------------0-------0--||--/4-------4-----------0-------2---------------0-------0----||---------------0---2-------3-------3---3/5------------------||-------------------------------------------3-------0--------|
|-------------0----------------------------------------------||---------3---------------------------3----------------------||-------0-----------------0-------0---------------0-------0--||--/4-------4-----------0-------2---------------0-------0----||---------------0---2-------3-------3---3/5------------------||-------------------------------------------3-------0--------|
|-------------0--------------------------------------------||---------3---------------------------3--------------------||-------0-----------------0-------0---------------0-0------||--/4-------4-----------0-------2---------------0-------0--||---------------0---2-------3-------3---3/5----------------||-------------------------------------------3-------0------|
--PART 2 (again)
|--------------------------------||------------1--------------1----||--2-----2--------------2--------||------0--------------0----------||-----------------1-------1---0--||--1-------1---3-----------------|
|--------------------------------||------------1--------------1----||--------2--------------2--------||------0--------------0----------||-----------------1-------1------||--1-------1---3--------------0--|
|--------------------------------||------------1--------------1----||--------2--------------2--------||------0--------------0----------||-----------------1-------1---0--||--1-------1---3-----------------|
|--------------------------------||------------1--------------1----||--------2--------------2--------||------0--------------0----------||--1-------0---------------------||--------------1--3---3---3--/5--|
--PART 3 (again)
|-----------------------------0----||-------------------------------0--||---------9---------------9--------||-------9-----9---------9----------||--/7-------7---6------------------||---0---------------7-------7------|
|-------------------------------||----------------------------0--||--------9---------------9------||------9-----9---------9--------||----------7---6----------------||--0---------------7-------7----|
|----------------------------0--||-------------------------------||--------9---------------9------||------9-----9---------9--------||----------7---6----------------||--0---------------7-------7----|
|-------------5---------------0----||---------------0---------------0--||---------0---------2-----2--------||--/4---4---------------0-------0--||--/5-------5----------------------||---------------0---2-------2--p0--|
|-----------------------------0----||-------------------------------0--||---------9---------------9--------||-------9-----9---------9----------||--/7-------7---6------------------||---0---------------7-------7------|
|----------------------------0----||------------------------------0--||--------9---------------9--------||------9-----9---------9----------||----------7---6------------------||--0---------------7-------7------|
|-------------5---------------0----||---------------0---------------0--||---------0---------2-----2--------||-------4---------------0-------0--||--/5-------5----------------------||---------------0---2-------2--p0--|
|----------------------------------||-----------------------------0----||---------9---------------9--------||-------9-----9---------9----------||--/7-------7---6------------------||---0---------------7-------7---0--|
--PART 1 (last time)
|-------------0----------------------------------------------||--/3-----3---------------------------3----------------------||-------0-----------------0-------0---------------0-------0--||--/4-------4-----------0-------2---------------0-------0----||---------------0---2-------3-------3---3/5------------------||-------------------------------------------3-------0--------|
|-------------0--------------------------------------------||---------3---------------------------3--------------------||-------0-----------------0-------0---------------0-0------||--/4-------4-----------0-------2---------------0-------0--||---------------0---2-------3-------3---3/5----------------||-------------------------------------------3-------0------|
--PART 2 (last time)
|--------------------------------||------------1--------------1----||--2-----2--------------2--------||------0--------------0----------||-----------------1-------1---0--||--1-------1---3-----------------|
|--------------------------------||------------1--------------1----||--------2--------------2--------||------0--------------0----------||-----------------1-------1---0--||--1-------1---3-----------------|
|--------------------------------||------------1--------------1----||--------2--------------2--------||------0--------------0----------||-----------------1-------1---0--||--1-------1---3-----------------|
|--------------------------------||--1---------1--------------1----||--------2--------------2--------||------0--------------0-------0--||--1-------0---------------------||--------------1--3---3---3---0--|
|-------||-------||--/9---| *For this ending, only actually pluck the 0 and 7|--/9---| The two 9's should resonate naturally as you slide up|--/7---||---0---|
THE END b - bend r - release gb - gradual bend gr - gradual release h - hammer on p - pull off T - trill W - whammy bar dive \ - slide down / - slide up x - mute X\ - pick slide ~~~ - vibrato *7 - artificial harmonic *7* - natural harmonic ... - palm mute (0) - optional note XXX - tremolo pick alt - variation of riff>
Tap to rate this tab
 
# A B C D E F G H I J K L M N O P Q R S T U V W X Y Z