Smashing Pumpkins - Hello Kitty Kat tab version 3

================================================================================
                       S M A S H I N G   P U M P K I N S

                                       -

                         H E L L O   K I T T Y   K A T
================================================================================


                                PISCES ISCARIOT
                           (c) Virgin Records (1994)
                        http://www.smashingpumpkins.com/


                                Standard  Tuning
                                   E A D G B E

                                 Tempo =  114 BPM
                               Time Signature = 4/4



                          -----------------------------
                                 Transcribed by

                                 PADDY MCMULLAN
                           pmtabs (@t) gmail [dot] com

                                   Version 1.0
                                2nd January 2011
                             -----------------------

                             Tablature Symbols Used:


 P.M...    -  Palm Mute
 p         -  Pull-Off
 h         -  Hammer-On
 4 b 5     -  Bend Up
 5 r 4     -  Release Bend
 pb19      -  Pre-bend (Bend to the note before striking it)
 (/)       -  Legato Slide (Blank space indicates length of slide)
 \         -  Slide Down to/Down From (Blank space indicates length of slide)
 /         -  Slide Up To/Up From (Blank space indicates length of slide)
 ( )       -  Ghost Note/Tied Note/Implied Note
 <5>       -  Pinch/Artificial Harmonic
 x         -  Muted Note/Dead Note
 xx\xx\    -  Pick scrapes
 %         -  Whammy Bar (Articulation is indicated above tab, blank spaces
              indicate length of articulation)
 REST      -  Rest and sustain rest for duration of blank space
 |__[1,2]  -  Alternative Endings
 |_3_|     -  Triplet Notes




================================================================================
Rest for 1 bar
================================================================================

================================================================================
Part 1: Guitars 1 & 2 w/ Distortion                       [ Time 00:00 - 00:52 ]
================================================================================


||-----------------------------|------------------------------| |||-----------------------------|------------------------------| |||-----------------------------|------------------------------|*|||-----------------------------|------------------------------|*| x 4||--4--4-4-2h4--4--4--4-2h4--4-|--4--4-4-2h4--4--4--4-2h4-4-4-| |||--2--2-2-0h2--2--2--2-0h2--2-|--2--2-2-0h2--2--2--2-0h2-2-2-| |
---------- Lead Fill: Guitar 3 w/ Distortion ---------- This part enters after the main riff is repeated twice
||--------------------------------------------|||--------------------------------------------|||--15--15-15-15-15-15-15--15--15-15-15-15-15-|||--x---x--x--x--x--x--x---x---x--x--x--x--x--|||--13--13-13-13-13-13-13--13--13-13-13-13-13-|||--------------------------------------------|
|----------------------------------------------||----------------------------------------------||-- /16--16-16-16-16-16-16--16--16-16-16-16-16-||----x---x--x--x--x--x--x---x---x--x--x--x--x--||-- /14--14-14-14-14-14-14--14--14-14-14-14-14-||----------------------------------------------|
|----------------------------------------------||----------------------------------------------||-- /18--18-18-18-18-18-18--18--18-18-18-18-18-||----x---x--x--x--x--x--x---x---x--x--x--x--x--||-- /16--16-16-16-16-16-16--16--16-16-16-16-16-||----------------------------------------------|
Pick scrapes|----------------------------------|||----------------------------------|||----------------------------------|||--x\--x\--x\--x\--x\--x\--x\--x\--|||--x\--x\--x\--x\--x\--x\--x\--x\--|||----------------------------------||
================================================================================ Part 2: Guitars 1 & 2 [ Time 00:52 - 02:12 ] ================================================================================
||----------------------------|-----------------------------|||----------------------------|-----------------------------|||----------------------------|-----------------------------|||----------------------------|-----------------------------|||--6--6-6-6--6-7---7--7--7-7-|--6--6-6-6--6-7--7-7--7--7-7-|||--4--4-4-4--4-0---0--0--0-0-|--4--4-4-4--4-0--0-0--0--0-0-|
|----------------------------|----------------------------||----------------------------|----------------------------||----------------------------|----------------------------||----------------------------|----------------------------||--6--6-6-6--6-7---7--7--7-7-|--6--6-6-6--6-7---7--9-- \--||--4--4-4-4--4-0---0--0--0-0-|--4--4-4-4--4-0---0--7-- \--|
|----------------------------|----------------------------||----------------------------|----------------------------||----------------------------|----------------------------||----------------------------|----------------------------||--6--6-6-6--6-7---7--7--7-7-|--6--6-6-6--6-7---7--9-- \--||--4--4-4-4--4-0---0--0--0-0-|--4--4-4-4--4-0---0--7-- \--|
|----------------------------|-----------------------------||----------------------------|-----------------------------||----------------------------|-----------------------------||----------------------------|-----------------------------||--6--6-6-6--6-7---7--7--7-7-|--6--6-6-6--6-7--7-7--7--7-7-||--4--4-4-4--4-0---0--0--0-0-|--4--4-4-4--4-0--0-0--0--0-0-|
|----------------------------|----------------------------|||----------------------------|----------------------------|||----------------------------|----------------------------|||----------------------------|----------------------------|||--6--6-6-6--6-7---7--7--7-7-|--6--6-6-6--6-7---7--7--7-7-|||--4--4-4-4--4-0---0--0--0-0-|--4--4-4-4--4-0---0--0--0-0-||
================================================================================ Part 3: Guitars 1, 2 & 3 w/ Pitch Shifter [ Time 01:12 - 01:49 ] ================================================================================ -------------- Guitars 1 & 2: Repeat Part 1 twice, then continue with the following: --------------
||-----------------------------|------------------------------|||-----------------------------|------------------------------|||-----------------------------|------------------------------|||-----------------------------|------------------------------|||--4--4-4-2h4--4--4--4-2h4--4-|--4--4-4-2h4--4--4--4-2h4-4-4-|||--2--2-2-0h2--2--2--2-0h2--2-|--2--2-2-0h2--2--2--2-0h2-2-2-|
|-------------------------------|---------------------| ||-------------------------------|---------------------| ||-------------------------------|---------------------|*||-------------------------------|---------------------|*| x 3|--4--4-4-2h4--4--4--4-2h4-4-4 /| -9------2------2----| ||--2--2-2-0h2--2--2--2-0h2-2-2 /| -7------0------0----| |
||-----------------------------|------------------------------||||-----------------------------|------------------------------||||-----------------------------|------------------------------||||-----------------------------|------------------------------||||--4--4-4-2h4--4--4--4-2h4--4-|--4--4-4-2h4--4--4--4-2h4-4-4-||||--2--2-2-0h2--2--2--2-0h2--2-|--2--2-2-0h2--2--2--2-0h2-2-2-||
--------- Guitar 3: Pitch shifter set one octave up ---------
|_3__|||--------------------------|---------------------------------|||---------------4h 5p4- -4-|--4---(4/5)--7~~--4-4h5p4---5----|||--6------------------- ---|--------------------------6------|||---------------------- ---|---------------------------------|||---------------------- ---|---------------------------------|||--------------------------|---------------------------------|
|_3_||--------------------------------------|-------4----------------|||--4h5p4---4-4----4-7~~--9-(7/9)---7---|--5-------5-------------|||--------6---------------6--6----6---6-|------------------------|||--------------------------------------|------------------------|||--------------------------------------|------------------------|||--------------------------------------|-----------------12\ --||
After guitar 3 completes it's part it joins in with guitars 1 & 2 for two repeats. ================================================================================ Part 4: Guitars 1 & 2 [ Time 01:49 - 02:14 ] ================================================================================ This part is a slight variation of Part 2
||----------------------------|-----------------------------|||----------------------------|-----------------------------|||----------------------------|-----------------------------|||----------------------------|-----------------------------|||--6--6-6-6--6-7---7--7--7-7-|--6--6-6-6--6-7--7-7--7--7-7-|||--4--4-4-4--4-0---0--0--0-0-|--4--4-4-4--4-0--0-0--0--0-0-|
|----------------------------|----------------------------||----------------------------|----------------------------||----------------------------|----------------------------||----------------------------|----------------------------||--6--6-6-6--6-7---7--7--7-7-|--6--6-6-6--6-7---7--9-- \--||--4--4-4-4--4-0---0--0--0-0-|--4--4-4-4--4-0---0--7-- \--|
|----------------------------|----------------------------||----------------------------|----------------------------||----------------------------|----------------------------||----------------------------|----------------------------||--6--6-6-6--6-7---7--7--7-7-|--6--6-6-6--6-7---7--9-- \--||--4--4-4-4--4-0---0--0--0-0-|--4--4-4-4--4-0---0--7-- \--|
|----------------------------|-----------------------------||----------------------------|-----------------------------||----------------------------|-----------------------------||----------------------------|-----------------------------||--6--6-6-6--6-7---7--7--7-7-|--6--6-6-6--6-7--7-7--7--7-7-||--4--4-4-4--4-0---0--0--0-0-|--4--4-4-4--4-0--0-0--0--0-0-|
|----------------------------|----------------------------||----------------------------|----------------------------||----------------------------|----------------------------||----------------------------|----------------------------||--6--6-6-6--6-7---7--7--7-7-|--6--6-6-6--6-7---7--7--7-7-||--4--4-4-4--4-0---0--0--0-0-|--4--4-4-4--4-0---0--0--0-0-|
|----------------------------|----------------------------|||----------------------------|----------------------------|||----------------------------|----------------------------|||----------------------------|----------------------------|||--6--6-6-6--6-7---7--7--7-7-|--6--6-6-6--6-7---7--9------|||--4--4-4-4--4-0---0--0--0-0-|--4--4-4-4--4-0---0--7--0-0-||
================================================================================ Part 5: Guitars 1 & 2 [ Time 02:14 - 02:40 ] ================================================================================
||-------------------------------------------| |||-------------------------------------------| |||-------------------------------------------|*|||-------------------------------------------|*| x 3||--(9/11)-11-11-11-11-11-11---11--11--11-11-| |||--(7/9 )-9--9--9--9--9--0----0---0---0--0--| |
|----------------------------------------| ||----------------------------------------| ||----------------------------------------|*||----------------------------------------|*| x 8|--(9/11)-11-11-11-11-11-11---11--7------| ||--(7/9 )-9--9--9--9--9--0----0---5--0-0-| |
|-----------------------------------|-------------------------|||-----------------------------------|-------------------------|||-----------------------------------|-------------------------|||-----------------------------------|-------------------------|||--(9/11)-11-11-11-11-11-12---------|--(12)-----12\ ---10\ ---|||--(7/ 9)-9--9--9--9--9--10---------|--(10)-----12\ ---10\ ---||
================================================================================ Part 6: Guitars 1, 2 & 3: [ Time 02:40 - 03:21 ] ================================================================================ -------------- Guitars 1 & 2: --------------
||------------------------------|------------------------------| |||------------------------------|------------------------------| |||------------------------------|------------------------------|*|||-----------------------6------|-----------------------6------|*| x 3||--(9\6)--6----4--4-4-4-4------|--(9\6)--6----4--4-4-4-4------| |||--(7\4)--4--0-2--2-2-2-4--0-0-|--(7\4)--4--0-2--2-2-2-4--0-0-| |
|------------------------------|--------------------------|||------------------------------|--------------------------|||------------------------------|--------------------------|||-----------------------6------|---------------------6----|||--(9\6)--6----4--4-4-4-4------|--(9\6)--6----4------4----|||--(7\4)--4--0-2--2-2-2-4--0-0-|--(7\4)--4--0-2------4----||
|------------------------------|------------------------------||------------------------------|------------------------------||------------------------------|------------------------------||-----------------------4------|-----------------------4------||--(7\4)--4--4-2--2-2-2-2--2-2-|--(7\4)--4--4-2--2-2-2-2--2-2-||--(5\2)--2--2-0--0-0-0-2--2-2-|--(5\2)--2--2-0--0-0-0-2--2-2-|
|------------------------------|------------------------------||------------------------------|------------------------------||------------------------------|------------------------------||-----------------------4------|------------------------------||--(7\4)--4--4-2--2-2-2-2--2-2-|--(7\4)--4--4-2--2-2-2-2--2-2-||--(5\2)--2--2-0--0-0-0-2--2-2-|--(5\2)--2--2-0--0-0-0-0--0-0-|
|------------------------------|------------------------------||------------------------------|------------------------------||------------------------------|------------------------------||-----------------------6------|-----------------------6------||--(9\6)--6----4--4-4-4-4------|--(9\6)--6----4--4-4-4-4------||--(7\4)--4--0-2--2-2-2-4--0-0-|--(7\4)--4--0-2--2-2-2-4--0-0-|
|------------------------------|--------------------------------|||------------------------------|--------------------------------|||------------------------------|--------------------------------|||-----------------------6------|--------------------------------|||--(9\6)--6----4--4-4-4-4------|--(9\6)--6----4-4-4-4-4-4-4-4-4-|||--(7\4)--4--0-2--2-2-2-4--0-0-|--(7\4)--4--0-2-2-2-2-2-2-2-2-2-||
--------- Guitar 3: Pitch shifter set to harmoniser ---------
||-------------------------||----------------------|||-------------------------||----------------------|||-----------------(6b7r6b || 8)-----(6b7r6)-|||-------------------------||----------------------|||-------------------------||----------------------|||-------------------------||----------------------|
|------------------------------|-----------------------------------||------------------------------|-----------------------------------||--(6)/8b9--6--4~~-----8b9r8- /| -(13\8)--(8p6/11)~~----(13b14r13b ||------------------------------|-----------------------------------||------------------------------|-----------------------------------||------------------------------|-----------------------------------|
|_3___| |__3___| |__3__||----------------------------------------------||----------------------------------------(15b ||15)-13p11-------11----------------------------||----------13-13----13p11----------------------||-------------------------9-11~~---------------||----------------------------------------------|
// Hold bend \\ |___3______| |______3|-------------------------------------------------------|| 16 16 16.5 16.5 17)--(15b17r15)-12----12----------||----------------------------------------13----(13 b 16 ||-------------------------------------------------------||-------------------------------------------------------||-------------------------------------------------------|
|__3___||----------------------------------------||----------------------------------------||r 13)---11h13p11--------------(13b15r13 ||-----------------11~~-------------------||------------------------x\ -------------||------------------------x\ -------------|
|__3___| |___3__| |___3__| |__3__||---------------------------------------------------||---------------------------------------------------||b 19 r 13)----11----11-13p11----11-----------------||-----------0-----13----------13----13p11-----------||-----------------------------------------(13p11\9h ||---------------------------------------------------| ...
|__3___| |__3___||---------------------------------------------------(16 b ||---------------------------------------------------------||-------------------11h13----(13b15r13 b 17r13)-----------||-------- /13p11h13-------13------------------------------|| 11)~~---------------------------------------------------||---------------------------------------------------------|
|__3___| Pre-bend| 18 r16)-----------------|-------------------------------*-------||-----------------------------|------------------------------<20>b18--||------------------------(17b | 19)------14-------<14>~~--------------||-----------------------------|-------------16p14---------------------||------------------/19\ ------|---------------------------------------||-------------/15\ -----------|---------------------------------------|
Hold bend Hold bend |__3___| |__3____| |_3___||------------------------------------------------||(18)-19r18-17----(17 b 20)-21------------||--------------18----------------------x----14~~-||----------------------------------------16------||------------------------------------------------||------------------------------------------------|
|__3___| Note #1......|------------------------------------------(15 b | 16.5)--15b--15b--15b--||------------------------------------------------|-----------------------------||-(14)-----(17b18.5r17)--16-14----14~~-----------|-----------------------------||-------16---------------------16----------------|-----------------------------||------------------------------------------------|-----------------------------||------------------------------------------------|-----------------------------|
Note #1: Hold the bend and gradually increase the pitch in microtonal increments peaking at around 1 and 1/4 intervals.
Note #1......................... |____3______||--15b--15pbr--15b--15b--15b--15b------(14b 16 ||----------------------------------------------||----------------------------------------------||----------------------------------------------||----------------------------------------------||----------------------------------------------|
|__3___| |__3___|| r 14)---11h14p11------------------------||------------------12~~---14~~---14----12-||-----------------------------------13----||-----------------------------------------||-----------------------------------------||-----------------------------------------|
|__3__||---------------------------------------|||---------------------------------------|||--13-----13-11-------------------------|||---------------(13\9h11 b 13 r 11)\ --|||---------------------------------------|||---------------------------------------||
================================================================================ Part 7: Guitars 1, 2 & 3 [ Time 03:13 - 03:21 ] ================================================================================ -------------- Guitars 1 & 2: --------------
||-----------------------------|-----------------------------|||-----------------------------|-----------------------------|||-----------------------------|-----------------------------|||--6--6--6--6-6--6-6-6-6--6-6-|--8--8--8--8-8--8-8-8-8--8-8-|||--4--4--4--4-4--4-4-4-4--4-4-|--6--6--6--6-6--6-6-6-6--6-6-|||--4--4--4--4-4--4-4-4-4--4-4-|--6--6--6--6-6--6-6-6-6--6-6-|
|-----------------------------||-----------------------------||-----------------------------||--9--9--9--9-9--9-9-9-9--9-9-||--7--7--7--7-7--7-7-7-7--7-7-||--7--7--7--7-7--7-7-7-7--7-7-|
|--------------------------------------------------|||--------------------------------------------------|||--------------------------------------------------|||--11-11-11-11-11-11-11-11-12-12-12-12-13-13-13-13-|||--9--9--9--9--9--9--9--9--10-10-10-10-11-11-11-11-|||--9--9--9--9--9--9--9--9--10-10-10-10-11-11-11-11-||
--------- Guitar 3: ---------
// Hold bend \\||-------------------------------------|---------------------------------|||-------------------------------------|---------------------------------|||--(11b13 r 11)--11~~---11~~--(11b13 | r11 b13)-----11b----11b--(13 b |||-------------------------------------|---------------------------------|||-------------------------------------|---------------------------------|||-------------------------------------|---------------------------------|
|-----------------------|-------------------------|||-----------------------|-------------------------||| 14)-----------(14 b| 16)------(16 b 18)-----|||-----------------------|-------------------------|||-----------------------|-------------------------|||-----------------------|-------------------------||
================================================================================ Part 8: Guitars 1, 2 & 3 [ Time 03:21 - 03:49 ] ================================================================================ -------------- Guitars 1 & 2: --------------
||----------------------------|-----------------------------|||----------------------------|-----------------------------|||----------------------------|-----------------------------|||----------------------------|-----------------------------|||--6--6-6-6--6-7---7--7--7-7-|--6--6-6-6--6-7--7-7--7--7-7-|||--4--4-4-4--4-0---0--0--0-0-|--4--4-4-4--4-0--0-0--0--0-0-|
| |----------------------------|----------------------------| || |----------------------------|----------------------------| || |----------------------------|----------------------------|*|| |----------------------------|----------------------------|*| x 2| |--6--6-6-6--6-7---7--7--7-7-|--6--6-6-6--6-7---7--9-- \--| || |--4--4-4-4--4-0---0--0--0-0-|--4--4-4-4--4-0---0--7-- \--| |
|----------------------------|---------------------------||----------------------------|---------------------------||----------------------------|---------------------------||----------------------------|---------------------------||--6--6-6-6--6-7---7--7--7-7-|--6--6-6-6--6-7---7--9--7--||--4--4-4-4--4-0---0--0--0-0-|--4--4-4-4--4-0---0--7--0--|
| |------------------------------|------------------------------| || |------------------------------|------------------------------| || |------------------------------|------------------------------|*|| |------------------------------|------------------------------|*| x 2| |--(4/6)-6-6-6--6-7---7--9--7--|--(4/6)-6-6-6--6-7---7--9--7--| || |--(2/4)-4-4-4--4-0---0--7--0--|--(2/4)-4-4-4--4-0---0--7--0--| |
|------------------------------|------------------------------|||------------------------------|------------------------------|||------------------------------|------------------------------|||------------------------------|------------------------------|||--(4/6)-6-6-6--6-7---7--9--7--|--(4/6)-6-6-6--6-7---7--7--7--|||--(2/4)-4-4-4--4-0---0--7--0--|--(2/4)-4-4-4--4-0---0--0--0--||
--------- Guitar 3: ---------
||---------------------|--------------------------------|||---------------------|--------------------------------|||--(11 b 13 )--|--(11 b 13)---(11b13)--(11b13)--|||---------------------|--------------------------------|||---------------------|--------------------------------|||---------------------|--------------------------------|
|---------------------------------------|------------------------------||---------------------------------------|------------------------------||--(11b13)--(10b12)--(10b12)--(9b10.5)--| (10)--(9b10)--(8b9)--(7b8)---||---------------------------------------|------------------------------||---------------------------------------|------------------------------||---------------------------------------|------------------------------|
/ Hold for 8 bars \|-------------------------|-------------------|||--------------------%----|-------------------||| (8)---(7b8)---7----6----|--(6)--------------|||-------------------------|-------------------|||-------------------------|-------------------|||-------------------------|-------------------||
% - gradually depress the whammy-bar (or the whammy pedal) steadily downwards, holding the note for the full 8 bars. ================================================================================ Part 9: Guitars 1, 2, 3 & 4 [ Time 03:49 - 04:32 ] ================================================================================ -------------- Guitars 1 & 2: --------------
||-----------------------------|------------------------------| |||-----------------------------|------------------------------| |||-----------------------------|------------------------------|*|||-----------------------------|------------------------------|*| x 3||--4--4-4-2h4--4--4--4-2h4--4-|--4--4-4-2h4--4--4--4-2h4-4-4-| |||--2--2-2-0h2--2--2--2-0h2--2-|--2--2-2-0h2--2--2--2-0h2-2-2-| |
|-----------------------------|------------------------------||-----------------------------|------------------------------||-----------------------------|------------------------------||-----------------------------|------------------------------||--4--4-4-2h4--4--4--4-2h4--4-|--4--4-4-2h4--4-2--2---2--2---||--2--2-2-0h2--2--2--2-0h2--2-|--2--2-2-0h2--2-0--0---0--0---| ... ...
|-----------------------------|------------------------------||-----------------------------|------------------------------||-----------------------------|------------------------------||-----------------------------|------------------------------||--4--4-4-2h4--4--4--4-2h4--4-|--4--4-4-2h4--4--4--4-2h4-4-4-||--2--2-2-0h2--2--2--2-0h2--2-|--2--2-2-0h2--2--2--2-0h2-2-2-|
| |-----------------------------|------------------------------| || |-----------------------------|------------------------------| || |-----------------------------|------------------------------|*|| |-----------------------------|------------------------------|*| x 2| |--4--4-4-2h4--4--4--4-2h4--4-|--4--4-4-2h4--4-2--2---2--2---| || |--2--2-2-0h2--2--2--2-0h2--2-|--2--2-2-0h2--2-0--0---0--0---| | ... ...
|-------------------------|||---------------R-- --|||---------------E-- --|||---------------S-- --|||--2--2---2--4--T-- --|||--0--0---0--2------------|| ... ...
--------- Guitar 3: Pitch Shifter Off ---------
||--17----------------------------------------| |||-----14-17p14-------------------------------| |||--------------16p14-------------------------|*|||--------------------16p14-16p14-------------|*| x 7||--------------------------------16----------| |||-----------------------------------14~~-----| |
|--17----------------------------------------|-------------------------||-----14-17p14-------------------------------|--R-- --14~~---14--||--------------16p14----------14~~-----14~~--|--E-- --x----------||--------------------16p14-------------------|--S-- -------------||--------------------------0--------0--------|--T-- -------------||--------------------------0--------0--------|-------------------------| ... ...
|---------------------------------------||--17---(17b19r17)--14----14------------||----------------------16----16~~-------||---------------------------------------||---------------------------------------||---------------------------------------|
|-----------------------------------------------||-----------------------------------------------||--16p14--------16p14---------------------------||--------16p-14-------16p14---------------------||---------------------------(16p14\12)-14~~-----||-----------------------------------------------|
|-------------------------------------------||-------------------------------------------||----------------------------14~~-----14~~--||--16p14------------------------------------||--------16p15-(14\12)~~--0--------0--------||-------------------------0--------0--------| ... ...
|-------------------------------------------------| ||-------------------------------------------------| ||-------------------------------------------------|*||--16p14---------------- /16 p 14-----------------|*| x 3|--------16p15-(14\12)------------16p15-(14\12)---| ||-------------------------------------------------| |
|-------------------------------------|-----------------------------|||----------------------R------R-------|-R------R-----------R-- --|||----------------------E--13--E--14---|-E--16--E--18~~- \--E-- --|||--16p14---------------S------S-------|-S------S-----------S-- --|||--------16p15-(14\12)-T------T-------|-T------T-----------T-- --|||-------------------------------------|-----------------------------||
--------- Guitar 4: with Distortion --------- Rest for 4 bars
||--------------14r12----| |||--R-- ----------| |||--E-- ----------|*|||--S-- ----------|*| x 3||--T-- ----------| |||-----------------------| |
|-----------------------------|||--R-- --14~~-----14~~---|||--E-- ------------------|||--S-- ------------------|||--T-- ------------------|||-----------------------------||
Rest for 4 bars
||---------------------------------| |||---------------------------------| |||---------------------------------|*|||--4p2---------- /4 p 2-----------|*| x 3||------4p3-2p0----------4p3-2p0---| |||---------------------------------| |
|------------------------------||------------------------------||-------------------9------9---||--4p2--------------x------x---||------4p3-2p0------7------7---||----------------0------0------| ... ...
|-----------------------------|------------------------|||--------------------R-- --|-- -------------------|||-----9------11- \--E-- --|-- -------------------|||-----x------x-------S-- --|-- -----------x----8--|||-----7------9-- \--T-- --|-- --x----0-----------|||--0------0-------------------|------------------------|| ... ...
================================================================================ End ================================================================================ Tab summary: Part 1 Part 2 Part 3 Part 4 Part 5 Part 6 Part 7 Part 8 Part 9 END
Tap to rate this tab
 
# A B C D E F G H I J K L M N O P Q R S T U V W X Y Z