Smashing Pumpkins – Eye tab ver. 2

================================================================================
                       S M A S H I N G   P U M P K I N S

                                       -

                                     E Y E
================================================================================


                          LOST HIGHWAY OST/ROTTEN APPLES
                            (c) Virgin Records (1991)
                        http://www.smashingpumpkins.com/


                               Tune Down a 1/2 Step
                                D# G# C#  F# A# D#

                                  Tempo = 80 BPM
                               Time Signature = 4/4



                          -----------------------------
                                 Transcribed by

                                 PADDY MCMULLAN
                           pmtabs (@t) gmail [dot] com

                                   Version 1.0
                               23rd December 2010
                             -----------------------

                             Tablature Symbols Used:


 (/)       -  Legato Slide (Blank space indicates length of slide)
 ( )       -  Ghost Note/Tied Note/Implied Note
 REST      -  Rest and sustain rest for duration of blank space


                                   -----------
                                   Song Notes:
                                   -----------

  Apart from the main guitar arpeggios no other guitar parts are played during
       the song, but I've arranged the synths to be played on a guitar.



================================================================================
Part 1: Guitar 1 (Clean w/ Octave Pedal)                  [ Time 00:00 - 00:36 ]
================================================================================


The octave pedal is set to be one octaver higher than the written notes.  The
written notes are also audible.


* Let notes ring wherever possible * 


||--------------------------|--------0-----------------| |||--------------0-----------|-----6-----6--------6-----| |||--------5--------5-----5--|--0--------------5-----5--|*|||-----7--------------7-----|--------------0-----------|*| x 2||--0--------0--------------|--------------------------| |||--------------------------|--------------------------| |
Rest for 8 bars ================================================================================ Part 2: Repeat Part 1 four times [ Time 00:36 - 01:01 ] ================================================================================ ================================================================================ Part 3: Guitar 1 (Octave Pedal Off) [ Time 01:01 - 01:19 ] ================================================================================ * Let notes ring wherever possible *
||--------------------------|-----------0--------0-----|||-----------6--------6-----|--------0--0--------------|||--------0--------0-----0--|-----0-----0-----0-----0--|||-----0--------0-----------|--------------0-----------|||--8-----------------------|--2-----------------------|||--------------------------|--------------------------|
|--------0-----------------|--------------------------||--------------3-----------|--------3--------0--0-----||-----0-----------0-----0--|--------0--0-----0--0--0--||--------------------------|-----4--------------------||--3--------3--------3-----|--5-----------5-----------||--------------------------|--------------------------|
|--------------------------|--0--------0----------0--|||-----------6--------6-----|-------------------------|||--------0--------0-----0--|--------0----------0-----|||-----0--------0-----------|-------------------------|||--8-----------------------|-----2----------2--------|||--------------------------|-------------------------||
================================================================================ Part 4: Guitars 1 (Octave Pedal On) & 2 (Synth) [ Time 01:19 - 01:43 ] ================================================================================ --------- Guitar 1: repeat Part 1 four times --------- --------- Guitar 2: ---------
||----------------------------|--------------------| |||--R-- --(10\8/10\8)-|--(8)-----R-- --| |||--E-- --------------|----------E-- --|*|||--S-- --------------|----------S-- --|*| x 4||--T-- --------------|----------T-- --| |||----------------------------|--------------------| |
Guitar 2's part is best played with a "soft" warm overdrive. ================================================================================ Part 5: Rest for 8 bars [ Time 01:43 - 2:07 ] ================================================================================ ================================================================================ Part 6: Repeat Part 1 four times [ Time 02:07 - 02:32 ] ================================================================================ ================================================================================ Part 7: Repeat Part 3 with the following variations [ Time 02:32 - 02:50 ] ================================================================================ * Let notes ring wherever possible *
||--------------------------|-----------0--------0-----|||--------6--6--------6-----|-----------0--------------|||--------0--------0-----0--|--------0--------0-----0--|||-----0--------0-----------|-----0--------0-----------|||--8-----------------------|--2-----------------------|||--------------------------|--------------------------|
|--------0-----------------|--------------------------||--------------3-----------|--------3--------0--0-----||-----0-----------0-----0--|--------0--0-----0--0--0--||--------------------------|-----4--------------------||--3--------3--------3-----|--5-----------5-----------||--------------------------|--------------------------|
|--------------------------|--0--------0----------0--|||-----------6--------6-----|-------------------------|||--------0--------0-----0--|--------0----------0-----|||-----0--------0-----------|-------------------------|||--8-----------------------|-----2----------2--------|||--------------------------|-------------------------||
================================================================================ Outro: Guitars 1 (Octave Pedal Off) & 2 [ Time 02:50 - 04:54 ] ================================================================================ --------- Guitar 1: --------- Rest for 4 bars
||----------20--------------19------|------20--24--20----------24------| |||------17------17--20--20------20--|------------------20--20------20--| |||----------------------------------|--19------------------------------|*|||--19------------------------------|----------------------------------|*| x 12||----------------------------------|----------------------------------| |||----------------------------------|----------------------------------| |
--------- Guitar 2: --------- Rest for 8 bars
||---------------------------|--------------------| |||---------------------------|--------------------| |||--9--10--9--7--9--7--5--4--|--7-----------------|*|||---------------------------|-------7------------|*| x 10||---------------------------|--------------------| |||---------------------------|--------------------| |
================================================================================ End ================================================================================ Tab summary: Part 1 x 2 [Rest for 8 bars] Part 1 x 2 Part 3 x 1 Part 4 x 4 Part 5 [Rest for 8 bars] Part 1 x 4 Part 3 x 1 [With variations] Outro x 12/10 (Gtr. 1/Gtr. 2) END
Please rate this tab:
x1.0