Smile Empty Soul – Hecklers Veto tab

the whole album is tuned Db Ab Db Gb Bb eb

Note: Rain and Meaningless are not on the demo but are from when SES we're known as 
Veto

==========Perfect Scene==========

Intro|-----------------------||-----------------------||-----------------------||---7----7----9----11---||--7-7--7-7--9-9--11-11-||-7----7----9----11-----|
|-------------------------------------||-------------------------------------||-------------------------------------||-7-9-7-9-7-9-7-9-9-11-9-11-9-11-9-11-||-7-9-7-9-7-9-7-9-9-11-9-11-9-11-9-11-||-7-9-7-9-7-9-7-9-9-11-9-11-9-11-9-11-|
Lead Over Intro/Chorus/Bridge Pt. 1|---------------------------------||---------------------------------||-9-9-9-9-9-9-9-9-7-7-7-7-5-5-5-5-||-x-x-x-x-x-x-x-x-x-x-x-x-x-x-x-x-||-7-7-7-7-7-7-7-7-5-5-5-5-3-3-3-3-||---------------------------------|
Verse|-----------------------------------------------------------------||-----------------------------------------------------------------||-9-9-9-9-9-9-9-9-9-9-9-9-9-9-9-9---------------------------------||-x-x-x-x-x-x-x-x-x-x-x-x-x-x-x-x-7-7-7-7-7-7-7-7-5-5-5-5-5-5-5-5-||-7-7-7-7-7-7-7-7-7-7-7-7-7-7-7-7-7-7-7-7-7-7-7-7-5-5-5-5-5-5-5-5-||---------------------------------7-7-7-7-7-7-7-7-5-5-5-5-5-5-5-5-|
|-----------------------------------------------------------------||-----------------------------------------------------------------||-----------------------------------------------------------------||-9-9-9-9-9-9-9-9-9-9-9-9-9-9-9-9-7-7-7-7-7-7-7-7-5-5-5-5-5-5-5-5-||-9-9-9-9-9-9-9-9-9-9-9-9-9-9-9-9-7-7-7-7-7-7-7-7-5-5-5-5-5-5-5-5-||-9-9-9-9-9-9-9-9-9-9-9-9-9-9-9-9-7-7-7-7-7-7-7-7-5-5-5-5-5-5-5-5-|
Bridge Pt. 2 Coming Soon! ==========Facepaint==========
Intro|---------------------------------||---------------------------------||-7-7-7-7-7-7-7-7-9-9-9-9-9-9-9-9-||-7-7-7-7-7-7-7-7-9-9-9-9-9-9-9-9-||-5-5-5-5-5-5-5-5-7-7-7-7-7-7-7-7-||---------------------------------|
Verse|---------------------||----3---------3------||---2---------2-------||--0---------0--------||-0---------0---------||---------------------|
Chorus|---------------------------------||---------------------------------||-7-7-7-7-9-9-9-9-7-7-7-7-9-9-9-9-||-7-7-7-7-9-9-9-9-7-7-7-7-9-9-9-9-||-5-5-5-5-7-7-7-7-5-5-5-5-7-7-7-7-||---------------------------------|
Bridge|-----------------------------||-----------------------------||-3--4--2--1--3-4-3--4--2--1--||-----------------------------||-----------------------------||-----------------------------|
Bridge Pt. 2|---------------------------------||---------------------------------||-7-7-7-7-9-9-9-9-7-7-7-7-5-5-5-5-||-7-7-7-7-9-9-9-9-7-7-7-7-5-5-5-5-||-5-5-5-5-7-7-7-7-5-5-5-5-3-3-3-3-||---------------------------------|
==========Too Far Gone==========
The note played at the beginning|----------||----------||-7--------||-x--------||-5--------||----------|
Intro|---------------------------------||---------------------------------||---------7-7-7-7---------5-5-5-5-||-7-7-7-7-7-7-7-7-5-5-5-5-5-5-5-5-||-7-7-7-7-5-5-5-5-5-5-5-5-3-3-3-3-||-5-5-5-5---------3-3-3-3---------|
Verse|-----------------------------------||-----------------------------------||---7--7--7-7-5--5-5-4--4-4-4-4-4-4-||---x--x--x-x-x--x-x-x--x-x-x-x-x-x-||---5--5--5-5-3--3-3-2--2-2-2-2-2-2-||-----------------------------------|
Chorus|-----------------------------------------------------------------||-----------------------------------------------------------------||-7-7-7-7-7-7-7-7-7-7-7-7-7-7-7-7-----------------5-5-5-5-4-4-4-4-||-7-7-7-7-7-7-7-7-7-7-7-7-7-7-7-7-5-5-5-5-5-5-5-5-5-5-5-5-4-4-4-4-||-5-5-5-5-5-5-5-5-5-5-5-5-5-5-5-5-5-5-5-5-5-5-5-5-3-3-3-3-2-2-2-2-||---------------------------------3-3-3-3-3-3-3-3-----------------|
Bridge|-----------------------------------------------------------------||-----------------------------------------------------------------||-7-7-7-7-7-7-7-7-7-7-7-7-7-7-7-7---------------------------------||-7-7-7-7-7-7-7-7-7-7-7-7-7-7-7-7-5-5-5-5-5-5-5-5-5-5-5-5-5-5-5-5-||-5-5-5-5-5-5-5-5-5-5-5-5-5-5-5-5-5-5-5-5-5-5-5-5-5-5-5-5-5-5-5-5-||---------------------------------3-3-3-3-3-3-3-3-3-3-3-3-3-3-3-3-|
Solo Coming Soon! ==========Tears==========
Intro|------------------------------------------||------------------------------------------||--9-9--10--9-9--10----9-9---10--9-9---10--||-7----7---7----7-----7----7----7----7-----||------------------------------------------||------------------------------------------|
|------------------------------------------||------------------------------------------||--9-9--10--9-9--10----9-9---10--9-9---10--||-7----7---7----7-----7----7----7----7-----||------------------------------------------||------------------------------------------|
|-----------------------------------------------------||-----------------------------------------------------||-7---5-5-5-5-9-9-9-9-7-------5-5-5-5-9-9-9-9-7-------||-7---5-5-5-5-9-9-9-9-7-------5-5-5-5-9-9-9-9-7-------||-5---3-3-3-3-7-7-7-7-5-------3-3-3-3-7-7-7-7-5-------||-----------------------------------------------------|
|----------------------------------------------------||----------------------------------------------------||-5-5-5-5-9-9-9-9-7---7---5-5-5-5-9-9-9-9-7--7-7-7-7-||-5-5-5-5-9-9-9-9-7-------5-5-5-5-9-9-9-9-7--7-7-7-7-||-3-3-3-3-7-7-7-7-5-------3-3-3-3-7-7-7-7-5--5-5-5-5-||----------------------------------------------------| . . . .
|-------------------------------------------------------||-------------------------------------------------------||-5-5-5-5-9-9-9-9-7--7-7-7-7-5-5-5-5-9-9-9-9-7--7-7-7-7-||-5-5-5-5-9-9-9-9-7--7-7-7-7-5-5-5-5-9-9-9-9-7--7-7-7-7-||-3-3-3-3-7-7-7-7-5--5-5-5-5-3-3-3-3-7-7-7-7-5--5-5-5-5-||-------------------------------------------------------| . . . . . . . .
|-------------------------------------------------------||-------------------------------------------------------||-5-5-5-5-9-9-9-9-7--7-7-7-7-5-5-5-5-9-9-9-9-7--7-7-----||-5-5-5-5-9-9-9-9-7--7-7-7-7-5-5-5-5-9-9-9-9-7--7-7-----||-3-3-3-3-7-7-7-7-5--5-5-5-5-3-3-3-3-7-7-7-7-5--5-5-----||-------------------------------------------------------| . . . . . .
Verse|-------------------------------------------------||-------------------------------------------------||-5-5-5-5-9-9-9-9-7-------5-5-5-5-9-9-9-9-7-------||-5-5-5-5-9-9-9-9-7-------5-5-5-5-9-9-9-9-7-------||-3-3-3-3-7-7-7-7-5-------3-3-3-3-7-7-7-7-5-------||-------------------------------------------------|
|----------------------------------------------------||----------------------------------------------------||-5-5-5-5-9-9-9-9-7---7---5-5-5-5-9-9-9-9-7--7-7-7-7-||-5-5-5-5-9-9-9-9-7-------5-5-5-5-9-9-9-9-7--7-7-7-7-||-3-3-3-3-7-7-7-7-5-------3-3-3-3-7-7-7-7-5--5-5-5-5-||----------------------------------------------------| . . . .
|-------------------------------------------------------||-------------------------------------------------------||-5-5-5-5-9-9-9-9-7--7-7-7-7-5-5-5-5-9-9-9-9-7--7-7-7-7-||-5-5-5-5-9-9-9-9-7--7-7-7-7-5-5-5-5-9-9-9-9-7--7-7-7-7-||-3-3-3-3-7-7-7-7-5--5-5-5-5-3-3-3-3-7-7-7-7-5--5-5-5-5-||-------------------------------------------------------| . . . . . . . .
|-------------------------------------------------------||-------------------------------------------------------||-5-5-5-5-9-9-9-9-7--7-7-7-7-5-5-5-5-9-9-9-9-7--7-7-7-7-||-5-5-5-5-9-9-9-9-7--7-7-7-7-5-5-5-5-9-9-9-9-7--7-7-7-7-||-3-3-3-3-7-7-7-7-5--5-5-5-5-3-3-3-3-7-7-7-7-5--5-5-5-5-||-------------------------------------------------------| . . . . . . . .
Pre Chorus|---------------------------------------------------------||---------------------------------------------------------||-5-5---5-5-7-5---5-5-9-9-9-9-5-5---5-5-7-5---5-5-9-9-9-9-||-5-5---5-5-7-5---5-5-9-9-9-9-5-5---5-5-7-5---5-5-9-9-9-9-||-3-3---3-3-5-3---3-3-7-7-7-7-3-3---3-3-5-3---3-3-7-7-7-7-||---------------------------------------------------------|
|---------------------------------------------------------||---------------------------------------------------------||-5-5---5-5-7-5---5-5-9-9-9-9-5-5---5-5-7-5---5-5-9-9-9-9-||-5-5---5-5-7-5---5-5-9-9-9-9-5-5---5-5-7-5---5-5-9-9-9-9-||-3-3---3-3-5-3---3-3-7-7-7-7-3-3---3-3-5-3---3-3-7-7-7-7-||---------------------------------------------------------|
Chorus|-----------------------------------------------------------------||-----------------------------------------------------------------||-5-5-5-5-5-5-5-5-9-9-9-9-9-9-9-9-7-7-7-7-7-7-7-7-4-4-4-4-4-4-4-4-||-5-5-5-5-5-5-5-5-9-9-9-9-9-9-9-9-7-7-7-7-7-7-7-7-4-4-4-4-4-4-4-4-||-3-3-3-3-3-3-3-3-7-7-7-7-7-7-7-7-5-5-5-5-5-5-5-5-2-2-2-2-2-2-2-2-||-----------------------------------------------------------------|
|-----------------------------------------------------------------||-----------------------------------------------------------------||-5-5-5-5-5-5-5-5-9-9-9-9-9-9-9-9-7-7-7-7-7-7-7-7-4-4-4-4-4-4-4-4-||-5-5-5-5-5-5-5-5-9-9-9-9-9-9-9-9-7-7-7-7-7-7-7-7-4-4-4-4-4-4-4-4-||-3-3-3-3-3-3-3-3-7-7-7-7-7-7-7-7-5-5-5-5-5-5-5-5-2-2-2-2-2-2-2-2-||-----------------------------------------------------------------|
|-----------------------------------------------------------------||-----------------------------------------------------------------||-5-5-5-5-5-5-5-5-9-9-9-9-9-9-9-9-7-7-7-7-7-7-7-7-4-4-4-4-4-4-4-4-||-5-5-5-5-5-5-5-5-9-9-9-9-9-9-9-9-7-7-7-7-7-7-7-7-4-4-4-4-4-4-4-4-||-3-3-3-3-3-3-3-3-7-7-7-7-7-7-7-7-5-5-5-5-5-5-5-5-2-2-2-2-2-2-2-2-||-----------------------------------------------------------------|
|-----------------------------------------------------------------||-----------------------------------------------------------------||-5-5-5-5-5-5-5-5-9-9-9-9-9-9-9-9-7-7-7-7-7-7-7-7-4-4-4-4-4-4-4-4-||-5-5-5-5-5-5-5-5-9-9-9-9-9-9-9-9-7-7-7-7-7-7-7-7-4-4-4-4-4-4-4-4-||-3-3-3-3-3-3-3-3-7-7-7-7-7-7-7-7-5-5-5-5-5-5-5-5-2-2-2-2-2-2-2-2-||-----------------------------------------------------------------|
Pre Bridge|---------------------------------------------||---------------------------------------------||-5-5-5-6--5-5-5-6-6-7--5-5-5-6--5-5-5-6-6-7--||-x-x-x-x--x-x-x-x-x-x--x-x-x-x--x-x-x-x-x-x--||-3-3-3-4--3-3-3-4-4-5--3-3-3-4--3-3-3-4-4-5--||---------------------------------------------|
Bridge Bend this part|-----------------------------------------------------------------||-----------------------------------------------------------------||-7-7-7-7-6-6-6-6-7-7-7-7-6-6-6-6-7-7-7-7-6-6-6-6-7-7-7-7-6-6-6-6-||-x-x-x-x-x-x-x-x-x-x-x-x-x-x-x-x-x-x-x-x-x-x-x-x-x-x-x-x-x-x-x-x-||-5-5-5-5-4-4-4-4-5-5-5-5-4-4-4-4-5-5-5-5-4-4-4-4-5-5-5-5-4-4-4-4-||-----------------------------------------------------------------|
|-----------------------------------------------------||-----------------------------------------------------||-7-7-7-7-6-6-6-6-7-7-7-7-6-6-6-6-7--6-6-6-7--7-6-6-6-||-x-x-x-x-x-x-x-x-x-x-x-x-x-x-x-x-x--x-x-x-x--x-x-x-x-||-5-5-5-5-4-4-4-4-5-5-5-5-4-4-4-4-5--4-4-4-5--5-4-4-4-||-----------------------------------------------------|
==========Shaking the Glass==========
Intro/Pre Chorus|-----------------------------------------------||-----------------------------------------------||-5--5-5-7-7-7-7-9-9-9-9-8--8-8-7-7-7-7-6-6-6-6-||-5--5-5-7-7-7-7-9-9-9-9-8--8-8-7-7-7-7-6-6-6-6-||-3--3-3-5-5-5-5-7-7-7-7-6--6-6-5-5-5-5-4-4-4-4-||-----------------------------------------------|
Verse/Chorus|-----------------------------------------------||-----------------------------------------------||-5--5-5-7-7-7-7-9-9-9-9-8--8-8-7-7-7-7-6-6-6-6-||-x--x-x-x-x-x-x-x-x-x-x-x--x-x-x-x-x-x-x-x-x-x-||-3--3-3-5-5-5-5-7-7-7-7-6--6-6-5-5-5-5-4-4-4-4-||-----------------------------------------------|
Bridge Coming Soon! ==========Hidden==========
Intro/Verse|--------------------------------------------------------------------------||--------------------------------------------------------------------------||-7--7--7-7-7-7-6-6-8--8--8-8-8-8-10--5--5--5-5-5-5-4-4--------------------||-7--7--7-7-7-7-6-6-8--8--8-8-8-8-10--5--5--5-5-5-5-4-4-5-5-5--5-4-4-4-4-4-||-5--5--5-5-5-5-4-4-6--6--6-6-6-6--8--3--3--3-3-3-3-2-2-5-5-5--5-4-4-4-4-4-||-------------------------------------------------------3-3-3--3-2-2-2-2-2-|
Chorus|-------------------------------------||-------------------------------------||-7--7--7-8-8-8-8-8-6--6--6-6-6-6-6-6-||-7--7--7-8-8-8-8-8-6--6--6-6-6-6-6-6-||-5--5--5-6-6-6-6-6-4--4--4-4-4-4-4-4-||-------------------------------------|
Bridge Coming Soon! ==========Rain==========
Intro|-----------------------------------------------------------------------||----------------------8-8-8--7-8-7-0-----------------------------------||---7---7----8/9-9-9--7-------------------------------------------------||-----9---9-------------------------------------------------------------||-----------------------------------------------------------------------||-----------------------------------------------------------------------|
Chorus|-------------------------------------------------------------------------||-------------------------------------------------------------------------||-----------------------------22------------------------------------------||---9--9-99---8--8-88---222---22------------------------------------------||---9--9-99---8--8-88---222---00------------------------------------------||---9--9-99---8--8-88---222-----------------------------------------------|
Pre Chorus|-------------------------------------------------------------------------||-------------------------------------------------------------------------||-------------------------------------------------------------------------||---9-9-9---10-10-10---12-12-12---12-12-12-11-----------------------------||---9-9-9---10-10-10---12-12-12---10-10-10--9-----------------------------||---9-9-9---10-10-10---12-12-12-------------------------------------------|
Bridge|-------------------------------------------------------------------------||-------------------------------------------------------------------------||---------------------------------22--------------------------------------||---9--9-99---12--12-1212---222---22--------------------------------------||---9--9-99---12--12-1212---222---00--------------------------------------||---9--9-99---12--12-1212---222-------------------------------------------|
==========Meaningless==========
Intro/Verse|-----------------------------------------------------------------||-----------------------------------------------------------------||-----------------------------------------------------------------||-6-6-6-6-6-6-6-6-4-4-4-4-4-4-4-4-8-8-8-8-8-8-8-8-8-8-8-8-8-8-8-8-||-4-4-4-4-4-4-4-4-2-2-2-2-2-2-2-2-6-6-6-6-6-6-6-6-6-6-6-6-6-6-6-6-||-----------------------------------------------------------------|
The Rest of the Album Coming Soon!
Please rate this tab:
x1.0