Smile Empty Soul - Smile Empty Soul tab

The album is tuned to Drop Db

==========Bottom of a Bottle==========

Intro|---------------------------------------||----------------------------0----------||----0------5-5p4p0--------------0------||-4--------------------5------------5\4-||-x-----------------0-----3-------------||-2-----0-------------------------------|
|---------------------------------------||----------------------------0----------||----0------5-5p4p0--------------0------||-4--------------------5------------5---||-x-----------------0-----3-------------||-2-----0-------------------------------|
Main Riff|---------------------------------------------------||---------------------------------------------------||---------5---5--5----------------------------------||-2---0---5---5--5-5----5/7---7---7---x-x-7/9-9-7-5-||-2---0---3---3--3-5----5/7---7---7---x-x-7/9-9-7-5-||-2---0------------5----5/7---7---7---x-x-7/9-9-7-5-|
|---------------------------------------------------||---------------------------------------------------||---------5---5--5----------------------------------||-2---0---5---5--5-5----5/7---7---7---x-x-7/9-9-7-5-||-2---0---3---3--3-5----5/7---7---7---x-x-7/9-9-7-5-||-2---0------------5----5/7---7---7---x-x-7/9-9-7-5-|
Intro Solo|-----------------------------------------------||-----------------------------------------------||-9-9-9-9-9-9-9-9-9/11-11-11-11-11-11-11-11-11/-||-x-x-x-x-x-x-x-x-x--x--x--x--x--x--x--x--x--x--||-7-7-7-7-7-7-7-7-7/-9--9--9--9--9--9--9--9--9/-||-----------------------------------------------|
|-------------------------------------------------------||-------------------------------------------------------||12-12-12-12-12-12-12-12-12/14-14-14-14-14-14-14-14-14/-||-x--x--x--x--x--x--x--x--x--x--x--x--x--x--x--x--x--x/-||10-10-10-10-10-10-10-10-10/12-12-12-12-12-12-12-12-12/-||-------------------------------------------------------|
|-------------------------------------------------------------------------||-------------------------------------------------------------------------||-19-19-19-19-19-19-19-19-19-19-19-19-19-19-19-19-19-19-19-19-19-19-19-19-||--x--x--x--x--x--x--x--x--x--x--x--x--x--x--x--x--x--x--x--x--x--x--x--x-||-17-17-17-17-17-17-17-17-17-17-17-17-17-17-17-17-17-17-17-17-17-17-17-17-||-------------------------------------------------------------------------|
Verse 1|--------------------------------------------------||--------------------------------------(7)---------||------------------------------------------(5)-----||----------------------------------------------(5)-||--------------------------------------------------||--------------------------------------------------|
Pre Chorus 1|-------------------------------------------------||-------------------------------------------------||-------------------------------------------------||-4-4-4-4-4-4-4-4-4-4-4-4-4-4-4-4-4-4-4-4-4-4-4-4-||-2-2-2-2-2-2-2-2-2-2-2-2-0-0-0-0-0-0-0-0-0-0-0-0-||-2-2-2-2-2-2-2-2-2-2-2-2-0-0-0-0-0-0-0-0-0-0-0-0-|
|-------------------------------------||-------------------------------------||-4-4-4-4-4-4-4-4-4-4-5-5-5-5-5-5-5-5-||-2-2-2-2-2-2-2-2-2-2-5-5-5-5-5-5-5-5-||-0-0-0-0-0-0-0-0-0-0-3-3-3-3-3-3-3-3-||-------------------------------------|
Chorus|------------------0------------------------------------||------------------3------------------------------------||------------------2-------------------5----5---5-------||-2----2---0----0--0---0-0--7----7--0--5----5---5---0-0-||-2----2---0----0--0---0-0--7----7--0--3----3---3---0-0-||-2----2---0----0--0---0-0--7----7--0---------------0-0-|
|------------------0------------------------------------||------------------3------------------------------------||------------------2-------------------5----5---5-------||-2----2---0----0--0---0-0--7----7--0--5----5---5---0-0-||-2----2---0----0--0---0-0--7----7--0--3----3---3---0-0-||-2----2---0----0--0---0-0--7----7--0---------------0-0-|
|------------------0------------------------------------||------------------3------------------------------------||------------------2-------------------5----5---5-------||-2----2---0----0--0---0-0--7----7--0--5----5---5---0-0-||-2----2---0----0--0---0-0--7----7--0--3----3---3---0-0-||-2----2---0----0--0---0-0--7----7--0---------------0-0-|
|------------------0------------------------------------||------------------3------------------------------------||------------------2-------------------5----5---5-------||-2----2---0----0--0---0-0--7----7--0--5----5---5---0-0-||-2----2---0----0--0---0-0--7----7--0--3----3---3---0-0-||-2----2---0----0--0---0-0--7----7--0---------------0-0-|
Verse 2|----------------------------------------------||----------------------------------(7)---------||--------------------------------------(5)-----||------------------------------------------(5)-||----------------------------------------------||----------------------------------------------|
|-----------------------------------------------||--------------------------------15-13-12h13-12-||-----------------------------------------------||-----------------------------------------------||-----------------------------------------------||-----------------------------------------------|
Pre Chorus 2|----------------------||----------------------||-------------4~----5~-||-4~----4~----2~----5~-||-2~----0~----0~----3~-||-2~----0~-------------|
Chorus|------------------0------------------------------------||------------------3------------------------------------||------------------2-------------------5----5---5-------||-2----2---0----0--0---0-0--7----7--0--5----5---5---0-0-||-2----2---0----0--0---0-0--7----7--0--3----3---3---0-0-||-2----2---0----0--0---0-0--7----7--0---------------0-0-|
|------------------0------------------------------------||------------------3------------------------------------||------------------2-------------------5----5---5-------||-2----2---0----0--0---0-0--7----7--0--5----5---5---0-0-||-2----2---0----0--0---0-0--7----7--0--3----3---3---0-0-||-2----2---0----0--0---0-0--7----7--0---------------0-0-|
|------------------0------------------------------------||------------------3------------------------------------||------------------2-------------------5----5---5-------||-2----2---0----0--0---0-0--7----7--0--5----5---5---0-0-||-2----2---0----0--0---0-0--7----7--0--3----3---3---0-0-||-2----2---0----0--0---0-0--7----7--0---------------0-0-|
|------------------0--------------------------------(5)-(5)-(5)-(5)-||------------------3--------------------------------(5)-(5)-(5)-(5)-||------------------2-------------------5----5---5---(5)-(5)-(5)-(5)-||-2----2---0----0--0---0-0--7----7--0--5----5---5-------------------||-2----2---0----0--0---0-0--7----7--0--3----3---3-------------------||-2----2---0----0--0---0-0--7----7--0-------------------------------|
|------------------0------------------------------------||------------------3------------------------------------||------------------2-------------------5----5---5-------||-2----2---0----0--0---0-0--7----7--0--5----5---5---0-0-||-2----2---0----0--0---0-0--7----7--0--3----3---3---0-0-||-2----2---0----0--0---0-0--7----7--0---------------0-0-|
|------------------0------------------------------------||------------------3------------------------------------||------------------2-------------------5----5---5-------||-2----2---0----0--0---0-0--7----7--0--5----5---5---0-0-||-2----2---0----0--0---0-0--7----7--0--3----3---3---0-0-||-2----2---0----0--0---0-0--7----7--0---------------0-0-|
|------------------0------------------------------------||------------------3------------------------------------||------------------2-------------------5----5---5-------||-2----2---0----0--0---0-0--7----7--0--5----5---5---0-0-||-2----2---0----0--0---0-0--7----7--0--3----3---3---0-0-||-2----2---0----0--0---0-0--7----7--0---------------0-0-|
|------------------0------------------------------------||------------------3------------------------------------||------------------2-------------------5----5---5-------||-2----2---0----0--0---0-0--7----7--0--5----5---5---0-0-||-2----2---0----0--0---0-0--7----7--0--3----3---3---0-0-||-2----2---0----0--0---0-0--7----7--0---------------0-0-|
Bridge PM First 3x then slowly release|-------------------------------------------------------------||-------------------------------------------------------------||-------------------------------5-5-5-5-5-5-5-5-5-4---5-4---4-||-2-2-2-2-2-2-2-2-2-2-2-2-2-2-2-5-5-5-5-5-5-5-5-5-5-5-5-5-5-5-||-2-2-2-2-2-2-2-2-2-2-2-2-2-2-2-3-3-3-3-3-3-3-3-3-3-3-3-3-3-3-||-2-2-2-2-2-2-2-2-5-5-5-5-5-5-5-------------------------------|
|-------------------------------------------------------------||-------------------------------------------------------------||-------------------------------5-5-5-5-5-5-5-5-5-4---5-4---4-||-2-2-2-2-2-2-2-2-2-2-2-2-2-2-2-5-5-5-5-5-5-5-5-5-5-5-5-5-5-5-||-2-2-2-2-2-2-2-2-2-2-2-2-2-2-2-3-3-3-3-3-3-3-3-3-3-3-3-3-3-3-||-2-2-2-2-2-2-2-2-5-5-5-5-5-5-5-------------------------------|
|-------------------------------------------------------------||-------------------------------------------------------------||-------------------------------5-5-5-5-5-5-5-5-5-4---5-4---4-||-2-2-2-2-2-2-2-2-2-2-2-2-2-2-2-5-5-5-5-5-5-5-5-5-5-5-5-5-5-5-||-2-2-2-2-2-2-2-2-2-2-2-2-2-2-2-3-3-3-3-3-3-3-3-3-3-3-3-3-3-3-||-2-2-2-2-2-2-2-2-5-5-5-5-5-5-5-------------------------------|
|-----------------------------------------------------------||-----------------------------------------------------------||-------------------------------5-5-5-5-5-5-5-5-5-4-4-4-----||-2-2-2-2-2-2-2-2-2-2-2-2-2-2-2-5-5-5-5-5-5-5-5-5-5-5-5-x-x-||-2-2-2-2-2-2-2-2-2-2-2-2-2-2-2-3-3-3-3-3-3-3-3-3-3-3-3-x-x-||-2-2-2-2-2-2-2-2-5-5-5-5-5-5-5-------------------------x-x-|
Chorus|------------------0------------------------------------||------------------3------------------------------------||------------------2-------------------5----5---5-------||-2----2---0----0--0---0-0--7----7--0--5----5---5---0-0-||-2----2---0----0--0---0-0--7----7--0--3----3---3---0-0-||-2----2---0----0--0---0-0--7----7--0---------------0-0-|
|------------------0------------------------------------||------------------3------------------------------------||------------------2-------------------5----5---5-------||-2----2---0----0--0---0-0--7----7--0--5----5---5---0-0-||-2----2---0----0--0---0-0--7----7--0--3----3---3---0-0-||-2----2---0----0--0---0-0--7----7--0---------------0-0-|
|------------------0------------------------------------||------------------3------------------------------------||------------------2-------------------5----5---5-------||-2----2---0----0--0---0-0--7----7--0--5----5---5---0-0-||-2----2---0----0--0---0-0--7----7--0--3----3---3---0-0-||-2----2---0----0--0---0-0--7----7--0---------------0-0-|
|------------------0--------------------------------(5)-(5)-(5)-(5)-||------------------3--------------------------------(5)-(5)-(5)-(5)-||------------------2-------------------5----5---5---(5)-(5)-(5)-(5)-||-2----2---0----0--0---0-0--7----7--0--5----5---5-------------------||-2----2---0----0--0---0-0--7----7--0--3----3---3-------------------||-2----2---0----0--0---0-0--7----7--0-------------------------------|
|------------------0------------------------------------||------------------3------------------------------------||------------------2-------------------5----5---5-------||-2----2---0----0--0---0-0--7----7--0--5----5---5---0-0-||-2----2---0----0--0---0-0--7----7--0--3----3---3---0-0-||-2----2---0----0--0---0-0--7----7--0---------------0-0-|
|------------------0------------------------------------||------------------3------------------------------------||------------------2-------------------5----5---5-------||-2----2---0----0--0---0-0--7----7--0--5----5---5---0-0-||-2----2---0----0--0---0-0--7----7--0--3----3---3---0-0-||-2----2---0----0--0---0-0--7----7--0---------------0-0-|
|------------------0------------------------------------||------------------3------------------------------------||------------------2-------------------5----5---5-------||-2----2---0----0--0---0-0--7----7--0--5----5---5---0-0-||-2----2---0----0--0---0-0--7----7--0--3----3---3---0-0-||-2----2---0----0--0---0-0--7----7--0---------------0-0-|
|------------------0------------------------------------||------------------3------------------------------------||------------------2-------------------5----5---5-------||-2----2---0----0--0---0-0--7----7--0--5----5---5---0-0-||-2----2---0----0--0---0-0--7----7--0--3----3---3---0-0-||-2----2---0----0--0---0-0--7----7--0---------------0-0-|
Outro|---------------------------------------------------||---------------------------------------------------||---------5---5--5----------------------------------||-2---0---5---5--5-5----5/7---7---7---x-x-7/9-9-7-5-||-2---0---3---3--3-5----5/7---7---7---x-x-7/9-9-7-5-||-2---0------------5----5/7---7---7---x-x-7/9-9-7-5-|
|------------------------------------------------------||------------------------------------------------------||---------5---5--5-------------------------------------||-2---0---5---5--5-5----5/7---7---7---x-x-7/9-9-7-5-2~-||-2---0---3---3--3-5----5/7---7---7---x-x-7/9-9-7-5-2~-||-2---0------------5----5/7---7---7---x-x-7/9-9-7-5-2~-|
==========Silhouettes==========
Intro/Verse 1|--------------------------------------------||------------------------------3--------3----||------3p0---------2p0------5---5-5----5-5---||---5-------5---3-------3--5-5---5----5---5--||--5-5-----5---3-3-----3--3----------3-----0-||-5-----------3------------------------------|
Chorus|-----------------------------------------||-----------------------------------------||------3---------5---------7---------2----||---1---1-1---3---3-3---5---5-5---0---0-0-||--1-1---1---3-3---3---5-5---5---0-0---0--||-1---------3---------5---------0---------|
Verse 2|-----------------------------------------------------||-----------------------------------------------------||---------------------------5---5--5-5-5-5---5--5-5-5-||-5---5--5-5-5-3---3--3-3-3-5---5--5-5-5-5---5--5-5-5-||-5---5--5-5-5-3---3--3-3-3-3---3--3-3-3-3---3--3-3-3-||-5---5--5-5-5-3---3--3-3-3---------------------------|
|--------------------------------------------||------------------------------3--------3----||------3p0---------2p0------5---5-5----5-5---||---5-------5---3-------3--5-5---5----5---5--||--5-5-----5---3-3-----3--3----------3-----0-||-5-----------3------------------------------|
Interlude|--------------------------------------------||--------------------------------------------||--------------------------------------------||-0----0----0--------1----(1)----3----(3)----||-0----0----0--------1----(1)----3----(3)----||-0----0----0--------1----(1)----3----(3)----|
Bridge|-------------------------------------------------||---------------1---------------------------------||----0--0----3-----3--------5-----5-5-5-5/3-3-3-3-||----------3--------------5----5--5-5-5-5/3-3-3-3-||-----------------------3---------3-3-3-3/1-1-1-1-||-5-------------------3---------------------------|
|----------------------------------------------------------||----------------------------------------------------------||-------3-----------5-----------7--------------------------||-----1----1------3----3------5----5--0------0------0------||---1-----------3-----------5---------0------0------0------||-1-----------3-----------5-----------0------0------0------|
|----------------------------------------------------------||----------------------------------------------------------||--------------3----3----3-----------------5-5-5-5/3-3-3-3-||-5---5--5--5--3----3----3----3---3--3--3--5-5-5-5/3-3-3-3-||-5---5--5--5--1----1----1----3---3--3--3--3-3-3-3/1-1-1-1-||-5---5--5--5-----------------3---3--3--3------------------|
Interlude Before Chorus|--------------------------------------------------------------------||------------------------------------------------------9b10----(10)--||--------------------------------------------------------------------||-5------(5)------0------(0)------------(0)--------------------------||-5------(5)------0------(0)------------(0)--------------------------||-5------(5)------0------(0)------------(0)--------------------------|
Last Chorus|-----------------------------------------------------------------||-----------------------------------------------------------------||-----------------------------------------------------------------||-1-1-1-1-1-1-1-1-3-3-3-3-3-3-3-3-5-5-5-5-5-5-5-5-0-0-0-0-0-0-0-0-||-1-1-1-1-1-1-1-1-3-3-3-3-3-3-3-3-5-5-5-5-5-5-5-5-0-0-0-0-0-0-0-0-||-1-1-1-1-1-1-1-1-3-3-3-3-3-3-3-3-5-5-5-5-5-5-5-5-0-0-0-0-0-0-0-0-|
|-----------------------------------------------------------------||-----------------------------------------------------------------||-----------------------------------------------------------------||-1-1-1-1-1-1-1-1-3-3-3-3-3-3-3-3-5-5-5-5-5-5-5-5-0-0-0-0-0-0-0-0-||-1-1-1-1-1-1-1-1-3-3-3-3-3-3-3-3-5-5-5-5-5-5-5-5-0-0-0-0-0-0-0-0-||-1-1-1-1-1-1-1-1-3-3-3-3-3-3-3-3-5-5-5-5-5-5-5-5-0-0-0-0-0-0-0-0-|
|------------------------------------------------------------||------------------------------------------------------------||------------------------------------------------------------||-1-1-1-1-1-1-1-1-3-3-3-3-3-3-3-3-5-5-5-5-5-5-5-5-0-0-0------||-1-1-1-1-1-1-1-1-3-3-3-3-3-3-3-3-5-5-5-5-5-5-5-5-0-0-0------||-1-1-1-1-1-1-1-1-3-3-3-3-3-3-3-3-5-5-5-5-5-5-5-5-0-0-0------| . . .
|-----------------------------------------------------------------||-----------------------------------------------------------------||-----------------------------------------------------------------||-1-1-1-1-1-1-1-1-3-3-3-3-3-3-3-3-5-5-5-5-5-5-5-5-0-0-0-0-0-0-0-0-||-1-1-1-1-1-1-1-1-3-3-3-3-3-3-3-3-5-5-5-5-5-5-5-5-0-0-0-0-0-0-0-0-||-1-1-1-1-1-1-1-1-3-3-3-3-3-3-3-3-5-5-5-5-5-5-5-5-0-0-0-0-0-0-0-0-|
|-----------------------------------------------------------------||-----------------------------------------------------------------||-----------------------------------------------------------------||-1-1-1-1-1-1-1-1-3-3-3-3-3-3-3-3-5-5-5-5-5-5-5-5-0-0-0-0-0-0-0-0-||-1-1-1-1-1-1-1-1-3-3-3-3-3-3-3-3-5-5-5-5-5-5-5-5-0-0-0-0-0-0-0-0-||-1-1-1-1-1-1-1-1-3-3-3-3-3-3-3-3-5-5-5-5-5-5-5-5-0-0-0-0-0-0-0-0-|
|-----------------------------------------------------------------||-----------------------------------------------------------------||-----------------------------------------------------------------||-1-1-1-1-1-1-1-1-3-3-3-3-3-3-3-3-5-5-5-5-5-5-5-5-0-0-0-0-0-0-0-0-||-1-1-1-1-1-1-1-1-3-3-3-3-3-3-3-3-5-5-5-5-5-5-5-5-0-0-0-0-0-0-0-0-||-1-1-1-1-1-1-1-1-3-3-3-3-3-3-3-3-5-5-5-5-5-5-5-5-0-0-0-0-0-0-0-0-|
|--------------------------------------------------------------||--------------------------------------------------------------||--------------------------------------------------------------||-1-1-1-1-1-1-1-1-3-3-3-3-3-3-3-3-5-5-5-5-5-5-5-5-0-0----------||-1-1-1-1-1-1-1-1-3-3-3-3-3-3-3-3-5-5-5-5-5-5-5-5-0-0----------||-1-1-1-1-1-1-1-1-3-3-3-3-3-3-3-3-5-5-5-5-5-5-5-5-0-0-12/------|
|-----------------------------------------------------------------||-----------------------------------------------------------------||-----------------------------------------------------------------||-1-1-1-1-1-1-1-1-3-3-3-3-3-3-3-3-5-5-5-5-5-5-5-5-0-0-0-0-0-0-0-0-||-1-1-1-1-1-1-1-1-3-3-3-3-3-3-3-3-5-5-5-5-5-5-5-5-0-0-0-0-0-0-0-0-||-1-1-1-1-1-1-1-1-3-3-3-3-3-3-3-3-5-5-5-5-5-5-5-5-0-0-0-0-0-0-0-0-|
Outro|-----------------------------------------------------------------||-----------------------------------------------------------------||-----------------------------------------------------------------||-1-1-1-1-1-1-1-1-1-1-1-1-1-1-1-1-3-3-3-3-3-3-3-3-3-3-3-3-3-3-3-3-||-1-1-1-1-1-1-1-1-1-1-1-1-1-1-1-1-3-3-3-3-3-3-3-3-3-3-3-3-3-3-3-3-||-1-1-1-1-1-1-1-1-1-1-1-1-1-1-1-1-3-3-3-3-3-3-3-3-3-3-3-3-3-3-3-3-|
|-------------------------------------------------||------------------------------3------------------||------3p0---------2p0------5---5-5--------(5)----||---5-------5---3-------3--5-3---5----------------||--5-5-----5---3-3-----3--3-----------------------||-5-----------3-----------------------------------|
==========Nowhere Kids==========
Intro|-------------------------------------------------------------||-------------------------------------------------------------||-------------------------------------------------------------||-5h7-7-7-7--7/9-9-9-9/10-10-10-10-5-5-5-5-5--5-5-5-5/2-2-2-2-||-5h7-7-7-7--5/7-7-7-7/-8--8--8--8-3-3-3-3-3--5-5-5-5/2-2-2-2-||-5h7-7-7-7-----------------------------------5-5-5-5/2-2-2-2-|
|-------------------------------------------------------||-------------------------------------------------------||-------------------------------------------------------||-5h7-7-7-7--7/9-9-9-9/10-10-10-10-5-5-5-5-5--5-5-5-----||-5h7-7-7-7--5/7-7-7-7/-8--8--8--8-3-3-3-3-3--5-5-5-----||-5h7-7-7-7-----------------------------------5-5-5-----|
Verse|-3----------------------3--------------------------------------------------||--3/2--------------------3/2-----------------------------------------------||---------------------------------------------------------------------------||-------------5h7-7-7-7--------------5h7-7-7-7--4/5-5-5-5-5-5-5-5-5-5-5-5-0-||-------------5h7-7-7-7--------------5h7-7-7-7--2/3-3-3-3-3-3-3-3-5-5-5-5-0-||-------------5h7-7-7-7--------------5h7-7-7-7--------------------5-5-5-5-0-|
Chorus|-------------------------------------------------------------||-------------------------------------------------------------||-------------------------------------------------------------||-5h7-7-7-7--7/9-9-9-9/10-10-10-10-5-5-5-5-5--5-5-5-5/2-2-2-2-||-5h7-7-7-7--5/7-7-7-7/-8--8--8--8-3-3-3-3-3--5-5-5-5/2-2-2-2-||-5h7-7-7-7-----------------------------------5-5-5-5/2-2-2-2-|
Interlude Before Verse 2|--------------------------------------------------------------------------------||--------------------------------------------------------------------------------||----------5-5-5-5/4-4-4-0-------------5-5-5-5/4-4-4-0-----------5-5-5-5/4-4-4-0-||-5-7-7-7--x-x-x-x-x-x-x-0--7-7-7-7-7--x-x-x-x-x-x-x-0--5-7-7-7--x-x-x-x-x-x-x-0-||-5-7-7-7--3-3-3-3/2-2-2----7-7-7-7-7--3-3-3-3/2-2-2----5-7-7-7--3-3-3-3/2-2-2---||-5-7-7-7-------------------7-7-7-7-7-------------------5-7-7-7------------------|
|-----------------------------------||-----------------------------------||-----------------------------------||-7-7-7-7-10-10-10-10-5-5-5-5-5-----||-7-7-7-7-10-10-10-10-5-5-5-5-5-----||-7-7-7-7-10-10-10-10-5-5-5-5-5-----|
Interlude Before Bridge|--------------------------------------------------------------------------------||--------------------------------------------------------------------------------||----------5-5-5-5/4-4-4-0-------------5-5-5-5/4-4-4-0-----------5-5-5-5/4-4-4-0-||-5-7-7-7--x-x-x-x-x-x-x-0--7-7-7-7-7--x-x-x-x-x-x-x-0--5-7-7-7--x-x-x-x-x-x-x-0-||-5-7-7-7--3-3-3-3/2-2-2----7-7-7-7-7--3-3-3-3/2-2-2----5-7-7-7--3-3-3-3/2-2-2---||-5-7-7-7-------------------7-7-7-7-7-------------------5-7-7-7------------------|
|----------------------||----------------------||----------------------||-7~----10~----5~------||-7~----10~----5~------||-7~----10~----5~------|
Bridge|-----0-------0--0-------0----0-------0-----0-------0----0-0-0---0-0-0---0-0-0-||------0------0---0------0-----0------0------0------0----0-0-0---0-0-0---0-0-0-||-------5--5--5----2--2--2------5--5--5-------2--2--2----2-2-----2-2-----2-2---||------------------------------------------------------------------------------||---7-------------0------------7----------0-----------0-0-----0-0-----0-0------||-7-7-----------3-3----------7-7--------3-3---------------------------3-3------|
Interlude After Bridge|------------------------------------------------------------------------------||------------------------------------------------------------------------------||------------------------------------------------------------------------------||------------------------------------------------------------------------------||-5h7-7-7-7-7--5h7-7-7-7-7--5h7-7-7-7-7--5h7-7-7-7-7--5h7-7-7-7-7--5h7-7-7-7-7-||-5h7-7-7-7-7--5h7-7-7-7-7--5h7-7-7-7-7--5h7-7-7-7-7--5h7-7-7-7-7--5h7-7-7-7-7-|
|------------------------------------------------------------------------------||------------------------------------------------------------------------------||------------------------------------------------------------------------------||-5h7-7-7-7-7--5h7-7-7-7-7--5h7-7-7-7-7--5h7-7-7-7-7--5h7-7-7-7-7--5h7-7-7-7-7-||-5h7-7-7-7-7--5h7-7-7-7-7--5h7-7-7-7-7--5h7-7-7-7-7--5h7-7-7-7-7--5h7-7-7-7-7-||-5h7-7-7-7-7--5h7-7-7-7-7--5h7-7-7-7-7--5h7-7-7-7-7--5h7-7-7-7-7--5h7-7-7-7-7-|
End With ThisE ---------------------|B ---------------------|G ---------------------|D -7--10--3--5--1p0~---|A -7--10--3--5--1p0~---|D -7--10--3--5--1p0~---|
=========This Is War==========
Intro/Verse|-----------------------------------------------------------------||-----------------------------------------------------------------||-----------------------------------------------------------------||-6-6-6-6-6-6-6-6-6-6-6-6-6-6-6-6-8-8-8-8-8-8-8-8-8-8-8-8-8-8-8-8-||-6-6-6-6-6-6-6-6-6-6-6-6-8-8-8-8-9-9-9-9-9-9-9-9-8-8-8-8-9-9-9-9-||-6-6-6-6-6-6-6-6-6-6-6-6-6-6-6-6-8-8-8-8-8-8-8-8-8-8-8-8-8-8-8-8-|
|---------------------------------------------------------------------||---------------------------------------------------------------------||---------------------------------------------------------------------||-9-9-9-9-9-9-9-9-9-9-9-9--9--9--9--9-9-9-9-9-8-8-8-8-8-8-8-8-8-8-8-8-||-9-9-9-9-9-9-9-9-9-9-9-9-11-11-11-11-9-9-9-9-8-8-9-9-8-8-8-8-8-8-8-8-||-9-9-9-9-9-9-9-9-9-9-9-9--9--9--9--9-9-9-9-9-8-8-8-8-8-8-8-8-8-8-8-8-|
Chorus Lead|--------2-------2--------2-------2------------------------------------------------||-----2---2---2---2---2----2---2---2------1---------1---------2--------2-----------||--3--------3-----------------------------3---3----3---3----4----4---4---4---------||---------------------3-------3--------3---------3--------4---------4--------------||----------------------------------------------------------------------------------||----------------------------------------------------------------------------------|
Chorus Rhythm|-----------------------------------------------------------------||-----------------------------------------------------------------||---------------------------------3-3-3-3-3-3-3-3-4-4-4-4-4-4-4-4-||-4-4-4-4-4-4-4-4-3-3-3-3-3-3-3-3-3-3-3-3-3-3-3-3-4-4-4-4-4-4-4-4-||-4-4-4-4-4-4-4-4-4-4-4-4-4-4-4-4-1-1-1-1-1-1-1-1-2-2-2-2-2-2-2-2-||-4-4-4-4-4-4-4-4-3-3-3-3-3-3-3-3---------------------------------|
==========Therapy==========
Intro/Verse (Palm-Muted)|--------------------------------------------------------------||--------------------------------------------------------------||--------------------------------------------------------------||----------55--------------55----------55---5------55---5------||------55------55------55------55-6666----6---8888----8---8----||--55--------------55------------------------------------------|
Intro/Chorus|-------------------------------------------------------------------------||-------------------------------------------------------------------------||-------------------------------------------------------------------------||-0-0-5-5-7-7-5-5-0-0-5-5-7-7-5-5-8-8-8-8-8-8-8-8/10-10-10-10-10-10-10-10-||-0-0-5-5-5-5-5-5-0-0-5-5-5-5-5-5-8-8-8-8-8-8-8-8/10-10-10-10-10-10-10-10-||-0-0-5-5-----5-5-0-0-5-5-----5-5-8-8-8-8-8-8-8-8/10-10-10-10-10-10-10-10-|
Interlude Before Verse 2 (Palm-Muted)|--------------------------------------------------------------||--------------------------------------------------------------||--------------------------------------------------------------||----------44--------------44----------44---4------44---4------||------44------44------44------44-5555----5---7777----7---7----||--44--------------44------------------------------------------|
Interlude Before Bridge|--------------------------------------------------------------||--------------------------------------------------------------||--------------------------------------------------------------||--5-5--x-x--5-5-5--x-x--5-5-----------------------------------||--5-5--x-x--5-5-5--x-x--5-5-----------------------------------||--5-5--x-x--5-5-5--x-x--5-5-----------------------------------|
Bridge (Palm-Muted)|---------------------------||---------------------------||---------------------------||---------------------------||-5-5--5-5--5--5-5--5-5--5--||-5-5--5-5--5--5-5--5-5--5--|
==========For You==========
Intro|---------------------------------------------------------------------------------||-----------------------------------------------------10-10-10-10--8-8-8---8-8--6-||----10---10---10---9--9-----7---7----7---5---5-------10-10-10-10--9-9-9---9-9--7-||-------0----0----0-------0----0---0----0---0--0------10-10-10-10--9-9-9---9-9--7-||--0--------------------------------------------------8--8--8--8---7-7-7---7-7--5-||--0----------------------------------------------0-------------------------------|
------------------|6-6---6-6--5-5-5--|7-7---7-7--5-5-5--|7-7---7-7--5-5-5--|5-5---5-5--3-3-3--|------------------|
Verse:|------------------------------------------------------------------------------------------------||------------------------------------------------------------------------------------------------||------10-10-10-10---9-9-9---9-9--7-7-7---7-7--5-5-5--------------------------10-10-10-\--5-5-5--||------10-10-10-10---9-9-9---9-9--7-7-7---7-7--5-5-5---3-3-3-3-/-5-5-5-5------x--x--x--\--x-x-x--||--0----8--8--8--8---7-7-7---7-7--5-5-5---5-5--3-3-3---3-3-3-3-/-5-5-5-5--0---8--8--8--\--3-3-3--||--0----0--0--0--0---0-0-0---0-0--0-0-0---0-0--0-0-0---3-3-3-3-/-5-5-5-5--0----------------------|
Chorus|---------------------------------------------------------------------------------||---------------------------------------------------------------------------------||-----------------2-2-2-----------------------------------------------------------||--8-8-8-8-8-8--0-0-0-0---3x-3x--3-3-/-5-5-5-5-5-5--5-5--5-5-5-5-5-5---5-5-(/-8)--||--8-8-8-8-8-8--0-0-0-0---3x-3x--3-3-/-5-5-5-5-5-5--5-5--5-5-5-5-5-5---5-5-(/-8)--||--8-8-8-8-8-8--0-0-0-0---3x-3x--3-3-/-5-5-5-5-5-5--5-5--5-5-5-5-5-5---5-5-(/-8)--|
Last Chorus|-------------------------------------------||-------------------------------------------||-------------------------10-10-10-/-9-9-9--||--8-8-8-8-8-8--0-0-0-0---x--x--x--/-x-x-x--||--8-8-8-8-8-8--0-0-0-0---8--8--8--/-7-7-7--||--8-8-8-8-8-8--0-0-0-0---------------------|
Interlude|------------------------------------------------------------------------------------------||------------------------------------------------------------------------------------------||------10-10-10-10---9-9-9---9-9--7-7-7---7-7--5-5-5--------------------10-10-10-\--5-5-5--||------10-10-10-10---9-9-9---9-9--7-7-7---7-7--5-5-5---3x-3x--5x-5x--0--x--x--x--\--x-x-x--||--0----8--8--8--8---7-7-7---7-7--5-5-5---5-5--3-3-3---3x-3x--5x-5x--0--8--8--8--\--3-3-3--||--0----0--0--0--0---0-0-0---0-0--0-0-0---0-0--0-0-0---3x-3x--5x-5x--0---------------------|
Outro|--------------------------------------------------------------------------------||--------------------------------------------------------------------------------||------10-10-10-10---9-9-9---9-9--7-7-7---7-7--5-5-5-------14-14-14-14--12-12-12-||-------x--x--x--x---x-x-x---x-x--x-x-x---x-x--x-x-x-------x--x--x--x---x--x--x--||-------8--8--8--8---7-7-7---7-7--5-5-5---5-5--3-3-3-------12-12-12-12--10-10-10-||--0----0--0--0--0---0-0-0---0-0--0-0-0---0-0--0-0-0---0---0---------------------|
----------------------|----------------------|12--9-9-9-9--10-10-10--|x---x-x-x-x--x--x--x---|10--7-7-7-7--8--8--8---|----------------------|
|----------------------------------------------------------------||----------------------------------------------------------------||------10-10-10-10---9-9-9---9-9--7-7-7---7-7--5-5-5-(hold)--/7--||-------x--x--x--x---x-x-x---x-x--x-x-x---x-x--x-x-x-------------||-------8--8--8--8---7-7-7---7-7--5-5-5---5-5--3-3-3--0-2--3-/5--||--0----0--0--0--0---0-0-0---0-0--0-0-0---0-0--0-0-0-------------|
==========Your Way==========
Intro|-----------------||-----------------||-----------------||-2-0-2-0-2-0-2-0-||-2-0-2-0-2-0-2-0-||-2-0-2-0-2-0-2-0-|
|-----------------------------------------||-----------------------------------------||-----------------------------------------||-4-4-4-4-4-4--4p2---4-4-4-4-4-4p0--5h7/9-||-4-4-4-4-4-4--4p2---4-4-4-4-4-4p0--5h7/9-||-4-4-4-4-4-4--4p2---4-4-4-4-4-4p0--5h7/9-| . . . . . . .
Verse Working On It
Chorus|---------------------------------|---------------------------------||---------------------------------|---------------------------------||---------------------------------|---------------------------------||-4-4-4-4-0-0-0-0-7-7-7-7-2-2-2-2-|-4-4-4-4-0-0-0-0-7-7-7-7-2-2-2-2-||-4-4-4-4-0-0-0-0-7-7-7-7-2-2-2-2-|-4-4-4-4-0-0-0-0-7-7-7-7-2-2-2-2-||-4-4-4-4-0-0-0-0-7-7-7-7-2-2-2-2-|-4-4-4-4-0-0-0-0-7-7-7-7-2-2-2-2-| . . . .
Bridge|--------------------------------------------||--------------------------------------------||------6-7-6---------------------------------||--4-4-4-4-4---5-5-5h7h8---7-7-7-7--2-2-2-2--||--4-4-4-4-4---5-5-5-5-5---7-7-7-7--2-2-2-2--||--4-4-4-4-4---5-5-5-5-5---7-7-7-7--2-2-2-2--|
|--------------------------------------------||--------------------------------------------||------6-7-6---------------------------------||--4-4-4-4-4---5-5-5h8p7---7-7-7-7--2-2-2-2--||--4-4-4-4-4---5-5-5-5-5---7-7-7-7--2-2-2-2--||--4-4-4-4-4---5-5-5-5-5---7-7-7-7--2-2-2-2--|
|--------------------------------------------||--------------------------------------------||--------------------------------------------||--4-4-4-4-4---5-5-5-5-5---7-7-7-7--2-2-2-2--||--4-4-4-4-4---5-5-5-5-5---7-7-7-7--2-2-2-2--||--4-4-4-4-4---5-5-5-5-5---7-7-7-7--2-2-2-2--|
==========The Other Side==========
Verse:|---------------------------------||----------------------0-0-0------||--------5-5-5---------2-2-2------||2-2-x-x-5-5-5-0-0-x-x-2-2-2------||2-2-x-x-3-3-3-0-0-x-x-0-0-0------||2-2-x-x-------0-0-x-x------------|
Chorus|----------------------------------||----------------------------------||----------------------------------||-2-x-x-4-x-x-5-x-x-7-x-x-10-10-7-7|x2|-2-x-x-4-x-x-5-x-x-7-x-x-10-10-7-7||-2-x-x-4-x-x-5-x-x-7-x-x-10-10-7-7|
Interlude/Bridge|-------------------------------------------------------------------------||-------------------------------------------------------------------------||-----12-12-12-11-11------11-11-11-9-9-----12-12-12-16-16-14--------------||-2-2-x--x--x--x--x--0-0--x--x--x--x-x-2-2-x--x--x--x--x--x---------------||-2-2-10-10-10-9--9--0-0--9--9--9--7-7-2-2-10-10-10-14-14-12--------------||-2-2----------------0-0---------------2-2--------------------------------|
==========Every Sunday==========
Intro|-------------------------------------------------------------||----0----------0-------------------0----------0--------------||----x----------x-------6-7-6-------x----------x--------------||7---7--7/4-4---4-4/5-4-6-7-6---7---7--7/4-4---4-4/5-4--------||5-5-5--5/2-2-2-2-2/3-4---------5-5-5--5/2-2-2-2-2/3-4--------||---------------------4------------------------------4--------|
Verse|-------------------------------------------------------||-------------------------------------------------------||-------------------------------------------------------||-7---4---4---------------------------------------------||-5-5-2-2-4---------------------------------------------||---------4---------------------------------------------|
Chorus|--------------------------------------------------------||--------------------------------------------------------||---------------------------------------------------7777-||00-xxxx-3/4-44-3/4-44-2h3h4-44-2h3h4-44-2h3h4-44-2-7777-||00-xxxx-1/2-22-1/2-22-2h3h4-44-2h3h4-44-2h3h4-44-2-5555-||00-xxxx---------------2h3h4-44-2h3h4-44-2h3h4-44-2-5555-|
Solo Coming Soon! ==========With This Knife==========
Intro/Verse 1/Bridge|-0h1----0h1----0h1-----1-----1----------3---5-3----------1-----0-1----||-----3------3--------3-----3---3------3---3-----3-------1-----1----1--||-------------------3-----2-------2--0-------------0-------------------||------------------------------------------------------3-----2---------||----------------------------------------------------------------------||----------------------------------------------------------------------|
Chorus/Verse 2|-1-1-1-1-1-1-1-1-1-1-1-1-1-1-1-1---------------------------------||-3-3-3-3-3-3-3-3-3-3-3-3-3-3-3-3-3-3-3-3-3-3-3-3-3-3-3-3-3-3-3-3-||-2-2-2-2-2-2-2-2-2-2-2-2-2-2-2-2-3-3-3-3-3-3-3-3-2-2-2-2-2-2-2-2-||-0-0-0-0-0-0-0-0-0-0-0-0-0-0-0-0-3-3-3-3-3-3-3-3-2-2-2-2-2-2-2-2-||---------------------------------1-1-1-1-1-1-1-1-0-0-0-0-0-0-0-0-||-----------------------------------------------------------------|
|-3-3-3-3-3-3-3-3-3-3-3-3-3-3-3-3-1-1-1-1-1-1-1-1-0-0-0-0-0-0-0-0-||-3-3-3-3-3-3-3-3-3-3-3-3-3-3-3-3-1-1-1-1-1-1-1-1-1-1-1-1-1-1-1-1-||-0-0-0-0-0-0-0-0-0-0-0-0-0-0-0-0-2-2-2-2-2-2-2-2-0-0-0-0-0-0-0-0-||-0-0-0-0-0-0-0-0-0-0-0-0-0-0-0-0-3-3-3-3-3-3-3-3-2-2-2-2-2-2-2-2-||-x-x-x-x-x-x-x-x-x-x-x-x-x-x-x-x-3-3-3-3-3-3-3-3-3-3-3-3-3-3-3-3-||-3-3-3-3-3-3-3-3-3-3-3-3-3-3-3-3-1-1-1-1-1-1-1-1-----------------|
Pre Bridge|-0-0-0-0-0-0-0-0--0-0-0--0-0-0-0--1-1-1--1-1-1-1-1--0-0-0--0-0-0-0--||-1-1-1-1-1-1-1-1--1-1-1--1-1-1-1--3-3-3--3-3-3-3-3--1-1-1--1-1-1-1--||-2-2-2-2-2-2-2-2--0-0-0--2-2-2-2--3-3-3--2-2-2-2-2--2-2-2--0-0-0-0--||-2-2-2-2-2-2-2-2--2-2-2--3-3-3-3--0-0-0--0-0-0-0-0--3-3-3--2-2-2-2--||-0-0-0-0-0-0-0-0--3-3-3--3-3-3-3--------------------3-3-3--3-3-3-3--||-------------------------1-1-1-1--------------------1-1-1-----------|
==========Radio In a Hole==========
Intro|---------------------------------------------------------------------------||---------------------------------------------------------------------------||---------------------------------------------------------------------------||-2-2-4/2\4/2-2-2-2-0-------------------------------------------------------||-2-2---------2-2-2-0-------------------------------------------------------||-2-2---------2-2-2-0-------------------------------------------------------|
Verse|-------------------------|-------------------------------------------------||-------------------------|-------------------------------------------------||-------------------------|-------------------------------------------------||-------------------------|-22-xx-22-xx-22-x-22/4----4444---2222---00000000-||-------------------------|-22-xx-22-xx-22-x-22/x---------------------------||-2-2--2-2--2-2--2-2--2-0-|-22-xx-22-xx-22-x-22/4-2-2----2-2----2-2---------| P.M.. . . . . . . . . . . . . . . .
Chorus|---------------------------------------------------------------------------||---------------------------------------------------------------------------||-------------------77777777------------------------------------------------||-2-2-2-0--2-2-2-0--77777777------------------------------------------------||-2-2-2-0--2-2-2-0--55555555------------------------------------------------||-2-2-2-0--2-2-2-0--55555555------------------------------------------------|
Bridge|---------------------------------------------------------------------------||---------------------------------------------------------------------------||---------------------------------------------------------------------------||-5~~~~2~~~~5~~~~2-PAUSE-5~~~~2~~~~5~~~~2-PAUSE-----------------------------||---------------------------------------------------------------------------||---------------------------------------------------------------------------|
Outro|----------------------------------------------------------------------------||----------------------------------------------------------------------------||----------------------------------------------------------------------------||-2-2-4/2\4/2-2-2-2-0--2-2-4/2\4/2------------2-2-4444-2-2-2222-2-2-0000-----||-2-2---------2-2-2-0--2-2--------------------2-2------2-2------2-2------2-2-||-2-2---------2-2-2-0--2-2---------2-2-2-0----2-2------2-2------2-2------2-2-| P.M. . . . .
|----------------------------------------------------------------------------||----------------------------------------------------------------------------||----------------------------------------------------------------------------||-----2-2-4444-2-2-2222-2-2-0000-PAUSE--2-2--2-2--2-2--2-2~~-2---------------||2-0--2-2------2-2------2-2------PAUSE--2-2--2-2--2-2--2-2~~-2---------------||2-0--2-2------2-2------2-2------PAUSE--2-2--2-2--2-2--2-2~~-2---------------|
==========All My Problems==========
Intro|----------------------------------------------------------------||----------------------------------------------------------------||----------------------------------------------------------------||-(0)-12p0---0--10p0--8p0---0--7p0--5p0--------------------------||-(0)-12p0---0--10p0--8p0---0--7p0--5p0--------------------------||-(0)-12p0---0--10p0--8p0---0--7p0--5p0--------------------------|
Verse|------------------------------------------------------------------------||------------------------------------------------------------------------||------------------------------------------------------------------------||-----10----0---------10----0------8888--10------------------------------||---------8----------------8-------8888--10------------------------------||--0----------------0--------------8888--10------------------------------|
Pre-Chorus|--------------------------------------------------------------------------------||--------------------------------------------------------------------------------||--------------------------------------------------------------------------------||-8-8-888-88--10-10-101010-1010--------------15---------14---------12--------10--||-8-8-888-88--10-10-101010-1010----------15---------14---------12--------10------||-8-8-888-88--10-10-101010-1010------15---------14---------12--------10----------|
Chorus 1|---------------------------------------------------------------------||---------------------------------------------------------------------||---------------------------------------------------------------------||-8-8-888-88--10-10-101010-1010-----0--0--12p0--0--10--1010-12--------||-8-8-888-88--10-10-101010-1010-----0--0--12p0--0--10--1010-12----x3--||-8-8-888-88--10-10-101010-1010-----0--0--12p0--0--10--1010-12--------|
End chorus on this|---------------------------||---------------------------||---------------------------||----8-8-8-8--10------------||----8-8-8-8--10------------||----8-8-8-8--10------------|
Chorus 2|-------------------------------------------------------------------------------------||-------------------------------------------------------------------------------------||-------------------------------------------------------------------------------------||--88888888-10101010101010-----0---10--12-----------0---------------------------------||--88888888-10101010101010-----0---10--12--9/10\9----x2-------------------------------||--88888888-10101010101010-----0---10--12---------------------------------------------|
Pre-Bridge|----------------------------------------------------------------||----------------------------------------------------------------||----------------------------------------------------------------||-(0)-12p0---0--10p0--8p0---0--7p0--5p0--------------------------||-(0)-12p0---0--10p0--8p0---0--7p0--5p0--------------------------||-(0)-12p0---0--10p0--8p0---0--7p0--5p0--------------------------|
Bridge|----------------------------------------------------------------------------------------||----------------------------------------------------------------------------------------||10-10-10-10-10-10-10-10-10-10-10-10-10-10-10-10-9-9-9-9-9-9-9-9-12-12-12-12-12-12-12-12-||-x--x--x--x--x--x--x--x--x--x--x--x--x--x--x--x-x-x-x-x-x-x-x-x--x--x--x--x--x--x--x--x-||-8--8--8--8--8--8--8--8--8--8--8--8--8--8--8--8-7-7-7-7-7-7-7-7-10-10-10-10-10-10-10-10-||----------------------------------------------------------------------------------------|
Post-Bridge|-----------------------------------------------------------------------||-----------------------------------------------------------------------||-----------------------------------------------------------------------||-0--10--12------------0-----------121212--101010--121212--10--8888--5--||-0--10--12---9/10\9------x3-------121212--101010--121212--10--8888--5--||-0--10--12------------------------121212--101010--121212--10--8888--5--|
Outro|------------------------------------------------------------------------------------||------------------------------------------------------------------------------------||------------------------------------------------------------------------------------||---121212--101010--121212---8888--10---5-----8---5--1~------------------------------||---121212--101010--121212---8888--10---5-----8---5--1~------------------------------||---121212--101010--121212---8888--10---5-----8---5--1~------------------------------|
==========I Want My Life==========
Intro (finger pick)i-----0----------------------------------------------|ii-3-----3---8----7---7-------------------------------|ii---0----0---0-----0---5-0-5/4-0---4---9-0---7-------|ii---------0------------------------------------------|ii-2---2-----7--7-5-----0---0-----0---0-7---7---------|ii----------------------------------------------------|i
i---------0------------------------------------------|ii-----3----3------888/777--555555--999/777-----------|ii-------0---0-----999/777--555444--999/777-----------|ii------------0----xxx/0000055555500999/777-----------|ii-2-2---------7-7-777/5550000000000777/555-----------|ii----------------------------------------------------|i
Verse|-----------------------------------------------------------------||-3-3-3-3-3-3-3-3-3-3-3-3-3-3-3-3-0-0-0-0-0-0-0-0-0-0-0-0-0-0-0-0-||-0-0-0-0-0-0-0-0-0-0-0-0-0-0-0-0-9-9-9-9-9-9-9-9-9-9-9-9-9-9-9-9-||-0-0-0-0-0-0-0-0-0-0-0-0-0-0-0-0-x-x-x-x-x-x-x-x-x-x-x-x-x-x-x-x-||-2-2-2-2-2-2-2-2-2-2-2-2-2-2-2-2-7-7-7-7-7-7-7-7-7-7-7-7-7-7-7-7-||-----------------------------------------------------------------|
|---------------------------------0-0-0-0-0-0-0-0-0-0-0-0-0-0-0-0-||-0-0-0-0-0-0-0-0-0-0-0-0-0-0-0-0-1-1-1-1-1-1-1-1-1-1-1-1-1-1-1-1-||-7-7-7-7-7-7-7-7-7-7-7-7-7-7-7-7-0-0-0-0-0-0-0-0-0-0-0-0-0-0-0-0-||-0-0-0-0-0-0-0-0-0-0-0-0-0-0-0-0-2-2-2-2-2-2-2-2-2-2-2-2-2-2-2-2-||-5-5-5-5-5-5-5-5-5-5-5-5-5-5-5-5-3-3-3-3-3-3-3-3-0-0-0-0-0-0-0-0-||-----------------------------------------------------------------|
Chorus|---------------------------------0-0-0-0-0-0-0-0-0-0-0-0-0-0-0-0-||-3-3-3-3-3-3-3-3-3-3-3-3-3-3-3-3-1-1-1-1-1-1-1-1-1-1-1-1-1-1-1-1-||-0-0-0-0-0-0-0-0-0-0-0-0-0-0-0-0-0-0-0-0-0-0-0-0-0-0-0-0-0-0-0-0-||-0-0-0-0-0-0-0-0-0-0-0-0-0-0-0-0-2-2-2-2-2-2-2-2-2-2-2-2-2-2-2-2-||-2-2-2-2-2-2-2-2-2-2-2-2-2-2-2-2-0-0-0-0-0-0-0-0-0-0-0-0-0-0-0-0-||-----------------------------------------------------------------|
|-0-0-0-0-0-0-0-0-0-0-0-0-0-0-0-0---------------------------------||-1-1-1-1-1-1-1-1-1-1-1-1-1-1-1-1-0-0-0-0-0-0-0-0-0-0-0-0-0-0-0-0-||-0-0-0-0-0-0-0-0-0-0-0-0-0-0-0-0-7-7-7-7-7-7-7-7-7-7-7-7-7-7-7-7-||-2-2-2-2-2-2-2-2-2-2-2-2-2-2-2-2-0-0-0-0-0-0-0-0-0-0-0-0-0-0-0-0-||-3-3-3-3-3-3-3-3-0-0-0-0-0-0-0-0-5-5-5-5-5-5-5-5-5-5-5-5-5-5-5-5-||-----------------------------------------------------------------|
Bridge|-3-5-5/7-5-3-2-3-3/5-3-2-0------3-55/7-5-3-2-3-3/5-3-2-0-----------||---------------------------3/0---------------------------3-1-------||-------------------------------0-----------------------------0-----||---------------------------------------------------------------4---||-------------------------------------------------------------------||-------------------------------------------------------------------|
==========Eraser==========
Intro/Verse|--------------------------------------------------------------------------||--------------------------------------------------------------------------||-6-6-6----------------4-4-4--6-6-6----------------4-4-4-------------------||-6-6-6--7-7-7--4-4-4--4-4-4--6-6-6--7-7-7--4-4-4--4-4-4-------------------||-4-4-4--7-7-7--4-4-4--2-2-2--4-4-4--7-7-7--4-4-4--2-2-2-------------------||--------5-5-5--2-2-2----------------5-5-5--2-2-2--------------------------|
Pre Chorus|--------------------------------------------------------------------------||--------------------------------------------------------------------------||-9-9-11-11--12--12--12--12--9-9-11-11--12--12--12--12---------------------||-9-9-11-11--12--12--12--12--9-9-11-11--12--12--12--12--X2-----------------||-7-7--9--9--10--10--10--10--7-7--9--9--10--10--10--10---------------------||--------------------------------------------------------------------------|
Chorus|--------------------------------------------------------------------------||--------------------------------------------------------------------------||-6-6-6-4-4-----------6-6-6-4-4--------------------------------------------||-6-6-6-4-4-4-4-4-2-2-6-6-6-4-4-4-4-4-2-2----------------------------------||-4-4-4-2-2-4-4-4-2-2-4-4-4-2-2-4-4-4-2-2----X2----------------------------||-----------2-2-2-0-0-----------2-2-2-0-0----------------------------------|
Bridge|--------------------------------------------------------------------------||--------------------------------------------------------------------------||--------------------------------------------------------------------------||-11-11-11-11--9-9-9-9--6-6-6-6--------------------------------------------||-11-11-11-11--9-9-9-9--6-6-6-6---X2---------------------------------------||--9--9--9--9--7-7-7-7--4-4-4-4--------------------------------------------|
Solo|---12-12-11-11-------------------------------------------------------------||---------------------------------------------------------------------------||---------------------------------------------------------------------------||-6-------------2-1--X2-6-7-9-7-6-7---1-2-4-2-4-6-4-2-6-4-2-6-4-2-1-2-1-----||-----------------------------------4-----------------------------------4-2-||---------------------------------------------------------------------------|
|------------------------------------------------------------------------||------------------------------------------------------------------------||-6-6-6------------------------------------------------------------------||-6-6-6--9-9-9-5-4-9-----------------------------------------------------||-4-4-4--9-9-9-5-4-9-----------------------------------------------------||--------7-7-7-3-2-7-----------------------------------------------------|
Tap to rate this tab
 
# A B C D E F G H I J K L M N O P Q R S T U V W X Y Z