Hit tab with lyrics by Smile Empty Soul - Easy chords and tabs for guitar

Smile Empty Soul – Hit tab

Smile Empty Soul - The Hit

Album: Vultures
Instrument: Guitar
Tuning: Db Ab Db Gb Bb eb
Composer: Sean Danielsen, Ryan Martin, Jake Kilmer & Mike Booth
Tabbed by: Sam Mountain

Intro (1X)

------------------------------------------------------------------|------------------------------------------------------------------|------------------------------------------------------------------|-7-7-x-x-7-7-x-x-9-9-x-x-9-9-x-x-4-4-x-x-4-4-x-x-4-4-x-x-4-4-x-x--| (1X)-7-7-x-x-7-7-x-x-9-9-x-x-9-9-x-x-4-4-x-x-4-4-x-x-4-4-x-x-4-4-x-x--|-7-7-x-x-7-7-x-x-9-9-x-x-9-9-x-x-4-4-x-x-4-4-x-x-4-4-x-x-4-4-x-x--|
------------------------------------------------------------------|------------------------------------------------------------------|---------------------------------4-4-----4-4-----4-4-----4-4------|-0-0-x-x-0-0-x-x-2-2-x-x-2-2-x-x-4-4-x-x-4-4-x-x-4-4-x-x-4-4-x-x--| (1X)-0-0-x-x-0-0-x-x-2-2-x-x-2-2-x-x-2-2-x-x-2-2-x-x-2-2-x-x-2-2-x-x--|-0-0-x-x-0-0-x-x-2-2-x-x-2-2-x-x-----x-x-----x-x-----x-x-----x-x--|
Verse 1 (Guitar 1) (2X)
------------------------------------------------------------------|------------------------------------------------------------------|------------------------------------------------------------------|-7-7-x-x-7-7-x-x-9-9-x-x-9-9-x-x-4-4-x-x-4-4-x-x-4-4-x-x-4-4-x-x--| (1X)-7-7-x-x-7-7-x-x-9-9-x-x-9-9-x-x-4-4-x-x-4-4-x-x-4-4-x-x-4-4-x-x--|-7-7-x-x-7-7-x-x-9-9-x-x-9-9-x-x-4-4-x-x-4-4-x-x-4-4-x-x-4-4-x-x--|
------------------------------------------------------------------|------------------------------------------------------------------|---------------------------------4-4-----4-4-----4-4-----4-4------|-0-0-x-x-0-0-x-x-2-2-x-x-2-2-x-x-4-4-x-x-4-4-x-x-4-4-x-x-4-4-x-x--| (1X)-0-0-x-x-0-0-x-x-2-2-x-x-2-2-x-x-2-2-x-x-2-2-x-x-2-2-x-x-2-2-x-x--|-0-0-x-x-0-0-x-x-2-2-x-x-2-2-x-x-----x-x-----x-x-----x-x-----x-x--|
Verse 1 (Guitar 2) (1X) (Comes in 2nd time) (Listen for timing)
-5--7--9--10--12--14--|----------------------|----------------------| (1X)----------------------|----------------------|----------------------|
-12----12----12----|----14----14----14-|-------------------| (1X)-------------------|-------------------|-------------------|
Chorus 1 (Guitar 1) (1X) (Listen for timing)
-----------------------------------|-----------------------------------|-9-11-6------4------4--4-6------4--|-7-9--4--0-2-4--4-0-4--4-6--0-2-4--|-7-9--4--0-2-2--4-0-2--2-4--0-2-2--|-7-9--4--0-2----4-0---------0-2----|
Chorus 1 (Guitar 2) (1X) (Listen for timing)
-0------12-12-12-10-9--0----------|---0---------------------0--------|-----3------------------------11--| (1X)---------------------------4--x---|------------------------------9---|----------------------------------|
Verse 2 (Guitar 1) (2X)
------------------------------------------------------------------|------------------------------------------------------------------|------------------------------------------------------------------|-7-7-x-x-7-7-x-x-9-9-x-x-9-9-x-x-4-4-x-x-4-4-x-x-4-4-x-x-4-4-x-x--| (1X)-7-7-x-x-7-7-x-x-9-9-x-x-9-9-x-x-4-4-x-x-4-4-x-x-4-4-x-x-4-4-x-x--|-7-7-x-x-7-7-x-x-9-9-x-x-9-9-x-x-4-4-x-x-4-4-x-x-4-4-x-x-4-4-x-x--|
------------------------------------------------------------------|------------------------------------------------------------------|---------------------------------4-4-----4-4-----4-4-----4-4------|-0-0-x-x-0-0-x-x-2-2-x-x-2-2-x-x-4-4-x-x-4-4-x-x-4-4-x-x-4-4-x-x--| (1X)-0-0-x-x-0-0-x-x-2-2-x-x-2-2-x-x-2-2-x-x-2-2-x-x-2-2-x-x-2-2-x-x--|-0-0-x-x-0-0-x-x-2-2-x-x-2-2-x-x-----x-x-----x-x-----x-x-----x-x--|
Verse 2 (Guitar 2) (1X) (Comes in 2nd time) (Listen for timing)
-5--7--9--10--12--14--|----------------------|----------------------| (1X)----------------------|----------------------|----------------------|
-12----12----12----|----14----14----14-|-------------------| (1X)-------------------|-------------------|-------------------|
Chorus 2 (Guitar 1) (1X) (Listen for timing)
-----------------------------------|-----------------------------------|-9-11-6------4------4--4-6------4--|-7-9--4--0-2-4--4-0-4--4-6--0-2-4--|-7-9--4--0-2-2--4-0-2--2-4--0-2-2--|-7-9--4--0-2----4-0---------0-2----|
Chorus 2 (Guitar 2) (1X) (Listen for timing)
-0------12-12-12-10-9--0----------|---0---------------------0--------|-----3------------------------11--| (1X)---------------------------4--x---|------------------------------9---|----------------------------------|
Bridge (1X)
--------------------|--------------------|-------6-7-9-11-13--|-7-9-4-6-7-9-11-13--| (1X)-7-9-4-4-5-7-9--11--|-7-9-4--------------|
Bridge (Guitar 1) (1X) (Listen for timing)
-----------------------------------|-----------------------------------|-9-11-6------4------4--4-6------4--|-7-9--4--0-2-4--4-0-4--4-6--0-2-4--|-7-9--4--0-2-2--4-0-2--2-4--0-2-2--|-7-9--4--0-2----4-0---------0-2----|
Bridge (Guitar 2) (1X) (Listen for timing)
-0------12-12-12-10-9--0----------|---0---------------------0--------|-----3------------------------11--| (1X)---------------------------4--x---|------------------------------9---|----------------------------------|
Interlude (1X)
------------------------------------------------------------------|------------------------------------------------------------------|------------------------------------------------------------------|-7-7-x-x-7-7-x-x-9-9-x-x-9-9-x-x-4-4-x-x-4-4-x-x-4-4-x-x-4-4-x-x--| (1X)-7-7-x-x-7-7-x-x-9-9-x-x-9-9-x-x-4-4-x-x-4-4-x-x-4-4-x-x-4-4-x-x--|-7-7-x-x-7-7-x-x-9-9-x-x-9-9-x-x-4-4-x-x-4-4-x-x-4-4-x-x-4-4-x-x--|
------------------------------------|------------------------------------|---------------------------------4--|-0-0-x-x-0-0-x-x-2-2-x-x-2-2-x-x-4--| (1X)-0-0-x-x-0-0-x-x-2-2-x-x-2-2-x-x-2--|-0-0-x-x-0-0-x-x-2-2-x-x-2-2-x-x----|
Chorus 3 (Guitar 1) (1X) (Listen for timing)
-----------------------------------|-----------------------------------|-9-11-6------4------4--4-6------4--|-7-9--4--0-2-4--4-0-4--4-6--0-2-4--|-7-9--4--0-2-2--4-0-2--2-4--0-2-2--|-7-9--4--0-2----4-0---------0-2----|
Chorus 3 (Guitar 2) (1X) (Listen for timing)
-0------12-12-12-10-9--0----------|---0---------------------0--------|-----3------------------------11--| (1X)---------------------------4--x---|------------------------------9---|----------------------------------|_________________- Sam
www.myspace.com/sammountain (My Band) Silence Breaks
Please rate this tab:
x1.0