Holes tab with lyrics by Smile Empty Soul - Easy chords and tabs for guitar

Smile Empty Soul – Holes tab

Artist: Smile Empty Soul
Song Title: Holes
Tabber: Max Deuble (www.myspace.com/maxpd)

I was requested to tab this one. Not really one of my favourite bands but one i'll 
to again. Any comments, suggestions please email me at d__o__a@hotmail.com

Gtr I (D A D G B E) - 'Untitled'
Gtr II (D A D G B E) - 'Untitled'
Gtr III (D A D G B E) - 'Untitled'
Gtr IV (D A D G B E) - 'Untitled'

Q=80 4/4 Gtr I|---------------------------------------------------------||-------------------------11-(11)-(11)-12-(12)-11-(11)----||-11-11-11-11-11-11-11-11-11--11---11--11--11--11--11--11-||---------------------------------------------------------||---------------------------------------------------------||---------------------------------------------------------|
|-------------------------------------------------||-----------------11-(11)-(11)-12-(12)-11-(11)----||-8-8-8-8-8-8-8-8--8---8----8---8---8---8---8--8--||-------------------------------------------------||-------------------------------------------------||-------------------------------------------------|
|---------------------------------------------------------||-------------------------11-(11)-(11)-12-(12)-11-(11)----||-11-11-11-11-11-11-11-11-11--11---11--11--11--11--11--11-||--9--9--9--9--9--9--9--9--9---9----9---9---9---9---9---9-||---------------------------------------------------------||---------------------------------------------------------|
|---------------------------------------------------||---------------------------------------------------||-11-11-11-11-11-11-11-11-11-11-11-11-11-11-11-11---||-11-11-11-11-11-11-11-11-11-11-11-11-11-11-11-11---||---------------------------------------------------||---------------------------------------------------|
Gtr I|---------------------------------------------------------||-------------------------11-(11)-(11)-12-(12)-11-(11)----||-11-11-11-11-11-11-11-11-11--11---11--11--11--11--11--11-||---------------------------------------------------------||---------------------------------------------------------||---------------------------------------------------------|
|
| Gtr II|---------------------------------------------------------||---------------------------------------------------------||---------------------------------------------------------||--4-----------4--------4------4----4-------4-------4---4-||--4-----------4--------4------4----4-------4-------4---4-||--4-----------4--------4------4----4-------4-------4---4-|
|--------------------------------------------------||-----------------11-(11)-(11)-12-(12)-11-(11)-----||-8-8-8-8-8-8-8-8--8---8----8---8---8---8---8--8---||--------------------------------------------------||--------------------------------------------------||--------------------------------------------------|
|
|--------------------------------------------------||--------------------------------------------------||--------------------------------------------------||-1-------1-----1------1----1-------1-------1--1---||-1-------1-----1------1----1-------1-------1--1---||-1-------1-----1------1----1-------1-------1--1---|
|---------------------------------------------------------||-------------------------11-(11)-(11)-12-(12)-11-(11)----||-11-11-11-11-11-11-11-11-11--11---11--11--11--11--11--11-||--9--9--9--9--9--9--9--9--9---9----9---9---9---9---9---9-||---------------------------------------------------------||---------------------------------------------------------|
|
|---------------------------------------------------------||---------------------------------------------------------||---------------------------------------------------------||--9-----------9--------9------9----9-------9-------9---9-||--9-----------9--------9------9----9-------9-------9---9-||--9-----------9--------9------9----9-------9-------9---9-|
|---------------------------------------------------||---------------------------------------------------||-11-11-11-11-11-11-11-11-11-11-11-11-11-11-11-11---||-11-11-11-11-11-11-11-11-11-11-11-11-11-11-11-11---||---------------------------------------------------||---------------------------------------------------|
|
|---------------------------------------------------||---------------------------------------------------||---------------------------------------------------||--4-----------4--------4-----4--4-----4-----4--4---||--4-----------4--------4-----4--4-----4-----4--4---||--4-----------4--------4-----4--4-----4-----4--4---|
Gtr I||----------------------------------------------------------|||o-------------------------11-(11)-(11)-12-(12)-11-(11)----|||--11-11-11-11-11-11-11-11-11--11---11--11--11--11--11--11-|||----------------------------------------------------------|||o---------------------------------------------------------|||----------------------------------------------------------|
|-------------------------------------------------||-----------------11-(11)-(11)-12-(12)-11-(11)----||-8-8-8-8-8-8-8-8--8---8----8---8---8---8---8--8--||-------------------------------------------------||-------------------------------------------------||-------------------------------------------------|
|---------------------------------------------------------||-------------------------11-(11)-(11)-12-(12)-11-(11)----||-11-11-11-11-11-11-11-11-11--11---11--11--11--11--11--11-||--9--9--9--9--9--9--9--9--9---9----9---9---9---9---9---9-||---------------------------------------------------------||---------------------------------------------------------|
|--------------------------------------------------|||-------------------------------------------------o|||-11-11-11-11-11-11-11-11-11-11-11-11-11-11-11-11--|||-11-11-11-11-11-11-11-11-11-11-11-11-11-11-11-11--|||-------------------------------------------------o|||--------------------------------------------------||
Gtr II|------------------|------------------||------------------|------------------||------------------|------------------||-1--1-1-1-1-1-1-1-|-9--9-9-9-9-9-9-9-||-1--1-1-1-1-1-1-1-|-9--9-9-9-9-9-9-9-||-1--1-1-1-1-1-1-1-|-9--9-9-9-9-9-9-9-|
|------------------|------------------||------------------|------------------||------------------|------------------||-4--4-4-4-4-4-4-4-|-1--1-1-1-1-1-1-1-||-4--4-4-4-4-4-4-4-|-1--1-1-1-1-1-1-1-||-4--4-4-4-4-4-4-4-|-1--1-1-1-1-1-1-1-|
|------------------|--------------------------||------------------|--------------------------||------------------|--------------------------||-9--9-9-9-9-9-9-9-|-11--11-11-11-11-11-11-11-||-9--9-9-9-9-9-9-9-|-11--11-11-11-11-11-11-11-||-9--9-9-9-9-9-9-9-|-11--11-11-11-11-11-11-11-|
Gtr III||------------------------------|------------------------------|||o-----------------------------|------------------------------|||--11--11-11--6--6--6-----6--6-|--8---8--8--3--3--3-----3--3--|||--11--11-11--6--6--6-----6--6-|--8---8--8--3--3--3-----3--3--|||o--9---9--9--4--4--4-----4--4-|--6---6--6--1--1--1-----1--1--|||------------------------------|------------------------------|
|
| Gtr II||------------------------------|------------------------------|||o-----------------------------|------------------------------|||--11--11-11-11-11-11-/13---13S|=11--11-11-11-11-11-/13---13S=|||---x---x--x--x--x--x---x----x-|--x---x--x--x--x--x---x----x--|||o--9---9--9--9--9--9-/11---11S|==9---9--9--9--9--9-/11---11S=|||------------------------------|------------------------------|
|-----------------------------|-------|||-----------------------------|------o|||--4---4--4--6--6--6-----6--6-|-8-----|||--4---4--4--6--6--6-----6--6-|-8-----|||--2---2--2--4--4--4-----4--4-|-6----o|||-----------------------------|-------||
|
|-----------------------------|-------|||-----------------------------|------o|||-11--11-11-11-11-11-/13---13-|-------|||--x---x--x--x--x--x---x----x-|-1-----|||--9---9--9--9--9--9-/11---11-|-1----o|||-----------------------------|-1-----||
Gtr I|---------------------------------------------------------||-------------------------11-(11)-(11)-12-(12)-11-(11)----||-11-11-11-11-11-11-11-11-11--11---11--11--11--11--11--11-||---------------------------------------------------------||---------------------------------------------------------||---------------------------------------------------------|
|
| Gtr II|---------------------------------------------------------||---------------------------------------------------------||---------------------------------------------------------||--4-----------4--------4------4----4-------4-------4---4-||--4-----------4--------4------4----4-------4-------4---4-||--4-----------4--------4------4----4-------4-------4---4-|
|------------------------------------------------||-----------------11-(11)-(11)-12-(12)-11-(11)---||-8-8-8-8-8-8-8-8--8---8----8---8---8---8---8--8-||------------------------------------------------||------------------------------------------------||------------------------------------------------|
|
|------------------------------------------------||------------------------------------------------||------------------------------------------------||-1-------1-----1------1----1-------1-------1--1-||-1-------1-----1------1----1-------1-------1--1-||-1-------1-----1------1----1-------1-------1--1-|
|---------------------------------------------------------||-------------------------11-(11)-(11)-12-(12)-11-(11)----||-11-11-11-11-11-11-11-11-11--11---11--11--11--11--11--11-||--9--9--9--9--9--9--9--9--9---9----9---9---9---9---9---9-||---------------------------------------------------------||---------------------------------------------------------|
|
|---------------------------------------------------------||---------------------------------------------------------||---------------------------------------------------------||--9-----------9--------9------9----9-------9-------9---9-||--9-----------9--------9------9----9-------9-------9---9-||--9-----------9--------9------9----9-------9-------9---9-|
|-------------------------------------------------||-------------------------------------------------||-11-11-11-11-11-11-11-11-11-11-11-11-11-11-11-11-||-11-11-11-11-11-11-11-11-11-11-11-11-11-11-11-11-||-------------------------------------------------||-------------------------------------------------|
|
|-------------------------------------------------||-------------------------------------------------||-------------------------------------------------||--4-----------4--------4-----4--4-----4-----4--4-||--4-----------4--------4-----4--4-----4-----4--4-||--4-----------4--------4-----4--4-----4-----4--4-|
Gtr I||----------------------------------------------------------|||o-------------------------11-(11)-(11)-12-(12)-11-(11)----|||--11-11-11-11-11-11-11-11-11--11---11--11--11--11--11--11-|||----------------------------------------------------------|||o---------------------------------------------------------|||----------------------------------------------------------|
|-------------------------------------------------||-----------------11-(11)-(11)-12-(12)-11-(11)----||-8-8-8-8-8-8-8-8--8---8----8---8---8---8---8--8--||-------------------------------------------------||-------------------------------------------------||-------------------------------------------------|
|---------------------------------------------------------||-------------------------11-(11)-(11)-12-(12)-11-(11)----||-11-11-11-11-11-11-11-11-11--11---11--11--11--11--11--11-||--9--9--9--9--9--9--9--9--9---9----9---9---9---9---9---9-||---------------------------------------------------------||---------------------------------------------------------|
|--------------------------------------------------|||-------------------------------------------------o|||-11-11-11-11-11-11-11-11-11-11-11-11-11-11-11-11--|||-11-11-11-11-11-11-11-11-11-11-11-11-11-11-11-11--|||-------------------------------------------------o|||--------------------------------------------------||
Gtr II|------------------|------------------||------------------|------------------||------------------|------------------||-1--1-1-1-1-1-1-1-|-9--9-9-9-9-9-9-9-||-1--1-1-1-1-1-1-1-|-9--9-9-9-9-9-9-9-||-1--1-1-1-1-1-1-1-|-9--9-9-9-9-9-9-9-|
|------------------|------------------||------------------|------------------||------------------|------------------||-4--4-4-4-4-4-4-4-|-1--1-1-1-1-1-1-1-||-4--4-4-4-4-4-4-4-|-1--1-1-1-1-1-1-1-||-4--4-4-4-4-4-4-4-|-1--1-1-1-1-1-1-1-|
|------------------|--------------------------||------------------|--------------------------||------------------|--------------------------||-9--9-9-9-9-9-9-9-|-11--11-11-11-11-11-11-11-||-9--9-9-9-9-9-9-9-|-11--11-11-11-11-11-11-11-||-9--9-9-9-9-9-9-9-|-11--11-11-11-11-11-11-11-|
Gtr III||------------------------------|------------------------------|||o-----------------------------|------------------------------|||--11--11-11--6--6--6-----6--6-|--8---8--8--3--3--3-----3--3--|||--11--11-11--6--6--6-----6--6-|--8---8--8--3--3--3-----3--3--|||o--9---9--9--4--4--4-----4--4-|--6---6--6--1--1--1-----1--1--|||------------------------------|------------------------------|
|
| Gtr II||------------------------------|------------------------------|||o-----------------------------|------------------------------|||--11--11-11-11-11-11-/13---13S|=11--11-11-11-11-11-/13---13S=|||---x---x--x--x--x--x---x----x-|--x---x--x--x--x--x---x----x--|||o--9---9--9--9--9--9-/11---11S|==9---9--9--9--9--9-/11---11S=|||------------------------------|------------------------------|
|-----------------------------|-------|||-----------------------------|------o|||--4---4--4--6--6--6-----6--6-|-8-----|||--4---4--4--6--6--6-----6--6-|-8-----|||--2---2--2--4--4--4-----4--4-|-6----o|||-----------------------------|-------||
|
|-----------------------------|-------|||-----------------------------|------o|||-11--11-11-11-11-11-/13---13-|-------|||--x---x--x--x--x--x---x----x-|-1-----|||--9---9--9--9--9--9-/11---11-|-1----o|||-----------------------------|-1-----||
Gtr II|-------------------------------------------------||-------------------------14-14-14-12-12-12-11-11-||-11-11-11-11-11-11-11-11-------------------------||-------------------------------------------------||-------------------------------------------------||-------------------------------------------------|
|
| Gtr IV|-------------------------------------------------||-------------------------------------------------||-11----------11-------11-----6--6-----6-----6--6-||-11----------11-------11-----6--6-----6-----6--6-||--9-----------9--------9-----4--4-----4-----4--4-||-------------------------------------------------|
|-----------------13-13-13-14-14-14-13-13-||-----------------------------------------||-8-8-8-8-8-8-8-8-------------------------||-----------------------------------------||-----------------------------------------||-----------------------------------------|
|
|-----------------------------------------||-----------------------------------------||-8-------8-----8-----3--3-----3-----3--3-||-8-------8-----8-----3--3-----3-----3--3-||-6-------6-----6-----1--1-----1-----1--1-||-----------------------------------------|
|-------------------------------------------------||-12-12-12-12-12-12-12-12-12-12-12-12-12-12-12-12-||-------------------------------------------------||-------------------------------------------------||-------------------------------------------------||-------------------------------------------------|
|
|-------------------------------------------------||-------------------------------------------------||--4-----------4--------4-----4--4-----4-----4--4-||--4-----------4--------4-----4--4-----4-----4--4-||--2-----------2--------2-----2--2-----2-----2--2-||-------------------------------------------------|
|-------------------------------------------------||-11-11-11-11-11-11-11-11-11-11-11-11-11-11-11-11-||-------------------------------------------------||-------------------------------------------------||-------------------------------------------------||-------------------------------------------------|
|
|-------------------------------------------------||-------------------------------------------------||--3-----------3--------3-----3--3-----3-----3--3-||--3-----------3--------3-----3--3-----3-----3--3-||--1-----------1--------1-----1--1-----1-----1--1-||-------------------------------------------------|
Gtr III||------------------------------|-------------------------------|||o-----------------------------|-------------------------------|||--11--11-11--6--6--6-----6--6-|--8---8--8--3--3--3-----3--3---|||--11--11-11--6--6--6-----6--6-|--8---8--8--3--3--3-----3--3---|||o--9---9--9--4--4--4-----4--4-|--6---6--6--1--1--1-----1--1---|||------------------------------|-------------------------------|
|
| Gtr II||------------------------------|-------------------------------|||o-----------------------------|-------------------------------|||--11--11-11-11-11-11-/13---13S|=11--11-11-11-11-11-/13---13S==|||---x---x--x--x--x--x---x----x-|--x---x--x--x--x--x---x----x---|||o--9---9--9--9--9--9-/11---11S|==9---9--9--9--9--9-/11---11S==|||------------------------------|-------------------------------|
|-----------------------------|-------|||-----------------------------|------o|||--4---4--4--6--6--6-----6--6-|-8-----|||--4---4--4--6--6--6-----6--6-|-8-----|||--2---2--2--4--4--4-----4--4-|-6----o|||-----------------------------|-------||
|
|-----------------------------|-------|||-----------------------------|------o|||-11--11-11-11-11-11-/13---13-|-------|||--x---x--x--x--x--x---x----x-|-1-----|||--9---9--9--9--9--9-/11---11-|-1----o|||-----------------------------|-1-----||
Please rate this tab:
x1.0