Smile Empty Soul - Adjustments tab

Smile Empty Soul - Adjustments

Album: Vultures
Instrument: Guitar
Tuning: Db Ab Db Gb Bb eb
Composer: Sean Danielsen, Ryan Martin, Jake Kilmer & Mike Booth
Tabbed by: Sam Mountain

Intro (1X)

----------------------------------|-----5-------5-------5-------5----|---5---5---5---5---5---5---5---5--|-7-------6-------5-------4--------| (1X)----------------------------------|----------------------------------|
(2nd time is a little different, sounds similar, i got the bass notes)
-------------|-------------|-------------|-------------| (1x)-0-----------|----6-5-0----|
Verse 1 (2X)
----------------------------------|-----5-------5-------5-------5----|---5---5---5---5---5---5---5---5--|-7-------6-------5-------4--------| (1X)----------------------------------|----------------------------------|
----------------------------------|----------------------------------|-----------------5-5-5-5----------|-7-7-7-7-5-5-5-5-5-5-5-5-0-0-0-0--| (1X)-7-7-7-7-5-5-5-5-3-3-3-3-0-0-0-0--|-7-7-7-7-5-5-5-5---------0-0-0-0--|
Chorus 1 (2X)
-----7----------------------------|-----7----------------------------|-5---9----------------------------|-5-5-9--0-0--0-0-0--0-0-0--0-0-0--|-3-5-7--0-0--0-0-0--0-0-0--0-0-0--|---5-7--0-0--0-0-0--0-0-0--0-0-0--|
Interlude (Guitar 1) (1X)
----------------------------------|-----5-------5-------5-------5----|---5---5---5---5---5---5---5---5--|-7-------6-------5-------4--------| (1X)----------------------------------|----------------------------------|
--------------------------------------|--------------------------------------|--------------------------------------|-7-7-7-7-6-6-6-6-5-5-5-5-x-x-0-x-x-0--| (1X)-7-7-7-7-6-6-6-6-5-5-5-5-x-x-0-x-x-0--|-7-7-7-7-6-6-6-6-5-5-5-5-x-x-0-x-x-0--|
Interlude (Guitar 2) (1X) (Over 1st Part of Interlude)
---------7-|---5---5---|-5---5-----|-----------|-----------|-----------|
Verse 2 (Guitar 1) (2X)
----------------------------------|-----5-------5-------5-------5----|---5---5---5---5---5---5---5---5--| (1X)-7-------6-------5-------4--------|----------------------------------|----------------------------------|
----------------------------------|----------------------------------|-----------------5-5-5-5----------|-7-7-7-7-5-5-5-5-5-5-5-5-0-0-0-0--| (1X)-7-7-7-7-5-5-5-5-3-3-3-3-0-0-0-0--|-7-7-7-7-5-5-5-5---------0-0-0-0--|
Verse 2 (Guitar 2) (Over 1st Part of Verse)
---------7---------7--|---5---5-----5---5----|-5---5-----5---5------|----------------------|----------------------|----------------------|
Chorus 2 (2X)
-----7----------------------------|-----7----------------------------|-5---9----------------------------|-5-5-9--0-0--0-0-0--0-0-0--0-0-0--|-3-5-7--0-0--0-0-0--0-0-0--0-0-0--|---5-7--0-0--0-0-0--0-0-0--0-0-0--|
Interlude (1X) "I don't give a fuck if you don't"
---------------------------|---------------------------|---------------------------|-0-0--0-0-0--0-0-0--0-0-0--|-0-0--0-0-0--0-0-0--0-0-0--|-0-0--0-0-0--0-0-0--0-0-0--|
Bridge (Guitar 1) (4X)
----------|----------|-----5-3--|-7-5-5-3--|-7-5-3-3--|-7-5---3--|
Bridge (Guitar 2) (2X) (Comes in 3rd Time) (Listen for Picking Pattern)
-------------|-------------|-9--7--9--10-|-------------|-------------|-------------|
Interlude (1X)
----------------------------------|-----5-------5-------5-------5----|---5---5---5---5---5---5---5---5--|-7-------6-------5-------4--------|----------------------------------|----------------------------------|
--------------------------------------|--------------------------------------|--------------------------------------|-7-7-7-7-6-6-6-6-5-5-5-5-x-x-0-x-x-0--|-7-7-7-7-6-6-6-6-5-5-5-5-x-x-0-x-x-0--|-7-7-7-7-6-6-6-6-5-5-5-5-x-x-0-x-x-0--|
Chorus 3 (4X)
-----7----------------------------|-----7----------------------------|-5---9----------------------------|-5-5-9--0-0--0-0-0--0-0-0--0-0-0--|-3-5-7--0-0--0-0-0--0-0-0--0-0-0--|---5-7--0-0--0-0-0--0-0-0--0-0-0--|
Outro (1X)
---------------------------|---------------------------|---------------------------|-0-0--0-0-0--0-0-0--0-0-0--|-0-0--0-0-0--0-0-0--0-0-0--|-0-0--0-0-0--0-0-0--0-0-0--|_________________- Sam
www.myspace.com/sammountain (My Band) Silence Breaks
Tap to rate this tab
 
# A B C D E F G H I J K L M N O P Q R S T U V W X Y Z