Snow Patrol - Mahogany tab

----------------------
Snow Patrol - Mahogany
----------------------
David Thompson, bring_it_on53@hotmail.com

1|-------------------------------------------------|2|-3-----------------------------------------------|3|-2-----------------------------------------------|4|-0-----------------------------------------------|5|-------------------------------------------------|6|-----------------3---------------2---------------| 1 + 2 + 3 + 4 + 5 + 6 +
I could help myself to something like a
1|---------------------------------|---------------------------------|2|---------------------------------|---------------------------------|3|---------------------------------|-2-------------------------------|4|---------------------------------|-2-------------------------------|5|-2-------------------------------|-0-------------------------------|6|-0-------------------------------|---------------------------------| 1 + 2 + 3 + 4 + 1 + 2 + 3 + 4 +
Little bit of revelation You could be the one to help me help my
1|---------------------------------|---------------------------------|2|-3-------3-----3---1---1---1---1-|-3-------3-----3---1---1---1---1-|3|-2-------2-----------0---0---0---|-2-------2-----------0---0---0---|4|-0-------0---0-------2---2---2---|-0-------0---0-------2---2---2---|5|---------------------3---3---3---|---------------------3---3---3---|6|---------------------3---3---3---|---------------------3---3---3---| 1 + 2 + 3 + 4 + 1 + 2 + 3 + 4 +
Self
1|-------------------------------------------------|2|-3-----------------------------------------------|3|-2-----------------------------------------------|4|-0-----------------------------------------------|5|-------------------------------------------------|6|-----------------3-----------3-3-2-----------2-2-| 1 + 2 + 3 + 4 + 5 + 6 +
Maybe if I could see exactly what was
1|---------------------------------|---------------------------------|2|---------------------------------|---------------------------------|3|---------------------------------|-2-------------------------------|4|---------2-----------------------|-2-------------------------------|5|-2-------2-----------------------|-0-------------------------------|6|-0-------0-----------------------|---------------------------------| 1 + 2 + 3 + 4 + 1 + 2 + 3 + 4 +
In your way I'd move it for you, don't always need to do it by your
[ 1|-2-------2---0-------------------|-2-------2---0-------------------| ][ 2|-3-------3-----3---1---1---1---1-|-3-------3-----3---1---1---1---1-| ][ 3|-2-------2-----------0---0---0---|-2-------2-----------0---0---0---| ][ 4|-0---0---0-----------2---2---2---|-0---0---0-----------2---2---2---| ] x2[ 5|---------------------3---3---3---|---------------------3---3---3---| ][ 6|---------------------3---3---3---|---------------------3---3---3---| ] 1 + 2 + 3 + 4 + 1 + 2 + 3 + 4 +
Self
1|-0-----0-2-----2-5-------5---5-5-|2|-1-----1-3-----3-6---------6-6-6-|3|-0-------2-------5-----------5-5-|4|-2-------0-----------------------|5|---------------------------------|6|---------------------------------| 1 + 2 + 3 + 4 +
[ 1|-2-------2---0-------------------|-2-------2---0-------------------| ][ 2|-3-------3-----3---1---1---1---1-|-3-------3-----3---1---1---1---1-| ][ 3|-2-------2-----------0---0---0---|-2-------2-----------0---0---0---| ][ 4|-0---0---0-----------2---2---2---|-0---0---0-----------2---2---2---| ] x2[ 5|---------------------3---3---3---|---------------------3---3---3---| ][ 6|---------------------3---3---3---|---------------------3---3---3---| ] 1 + 2 + 3 + 4 + 1 + 2 + 3 + 4 +
1|-------------------------------------------------|2|-3-----------------------------------------------|3|-2-----------------------------------------------|4|-0-----------------------------------------------|5|-------------------------------------------------|6|-----------------3---------------2---------------| 1 + 2 + 3 + 4 + 5 + 6 +
I'm not trying to find a way to get in
1|---------------------------------|---------------------------------|2|---------------------------------|---------------------------------|3|---------------------------------|---------------------------------|4|---------2-----------------------|-2-------------------------------|5|-2-------2-----------------------|-0-------------------------------|6|-0-------0-----------------------|---------------------------------| 1 + 2 + 3 + 4 + 1 + 2 + 3 + 4 +
To your bed I'll just sing for you, until you fall asleep then I will
1|-2-------2---0-------------------|-2-------2---0-------------------|2|-3-------3-----3---1---1---1---1-|-3-------3-----3---1---1---1---1-|3|-2-------2-----------0---0---0---|-2-------2-----------0---0---0---|4|-0---0---0-----------2---2---2---|-0---0---0-----------2---2---2---|5|---------------------3---3---3---|---------------------3---3---3---|6|---------------------3---3---3---|---------------------3---3---3---| 1 + 2 + 3 + 4 + 1 + 2 + 3 + 4 +
Go
1|-------------------------------------------------|2|-3-----------------------------------------------|3|-2-----------------------------------------------|4|-0-----------------------------------------------|5|-------------------------------------------------|6|-----------------3---------------2---------------| 1 + 2 + 3 + 4 + 5 + 6 +
I never understood how you should feel you've
1|---------------------------------|---------------------------------|2|---------------------------------|---------------------------------|3|---------------------------------|---------------------------------|4|---------------------------------|-2-------------------------------|5|-2-------------------------------|-0-------------------------------|6|-0-------------------------------|---------------------------------| 1 + 2 + 3 + 4 + 1 + 2 + 3 + 4 +
Been left out I'd never do that, it's all in your imagination
[ 1|-2-------2---0-------------------|-2-------2---0-------------------| ][ 2|-3-------3-----3---1---1---1---1-|-3-------3-----3---1---1---1---1-| ][ 3|-2-------2-----------0---0---0---|-2-------2-----------0---0---0---| ][ 4|-0---0---0-----------2---2---2---|-0---0---0-----------2---2---2---| ] x2[ 5|---------------------3---3---3---|---------------------3---3---3---| ][ 6|---------------------3---3---3---|---------------------3---3---3---| ] 1 + 2 + 3 + 4 + 1 + 2 + 3 + 4 +
Dear
1|-0-----0-2-----2-5-------5---5-5-|2|-1-----1-3-----3-6---------6-6-6-|3|-0-------2-------5-----------5-5-|4|-2-------0-----------------------|5|---------------------------------|6|---------------------------------| 1 + 2 + 3 + 4 +
1|-2-------2---0-------------------|-2-------2---0-------------------|2|-3-------3-----3---1---1---1---1-|-3-------3-----3---1---1---1---1-|3|-2-------2-----------0---0---0---|-2-------2-----------0---0---0---|4|-0---0---0-----------2---2---2---|-0---0---0-----------2---2---2---|5|---------------------3---3---3---|---------------------3---3---3---|6|---------------------3---3---3---|---------------------3---3---3---| 1 + 2 + 3 + 4 + 1 + 2 + 3 + 4 +
1|-0-----0-2-----2-5-------5---5-5-|2|-1-----1-3-----3-6---------6-6-6-|3|-0-------2-------5-----------5-5-|4|-2-------0-----------------------|5|---------------------------------|6|---------------------------------| 1 + 2 + 3 + 4 +
[ 1|-2-------2---0-------------------|-2-------2---0-------------------| ][ 2|-3-------3-----3---1---1---1---1-|-3-------3-----3---1---1---1---1-| ][ 3|-2-------2-----------0---0---0---|-2-------2-----------0---0---0---| ][ 4|-0---0---0-----------2---2---2---|-0---0---0-----------2---2---2---| ] x2[ 5|---------------------3---3---3---|---------------------3---3---3---| ][ 6|---------------------3---3---3---|---------------------3---3---3---| ] 1 + 2 + 3 + 4 + 1 + 2 + 3 + 4 +
1|---------------------------------|2|-3-------------------------------|3|-2-------------------------------|4|-0-------------------------------|5|---------------------------------|6|---------------------------------| 1 + 2 + 3 + 4 +
Tap to rate this tab
 
# A B C D E F G H I J K L M N O P Q R S T U V W X Y Z