Societys Plague - Forged By Fury tab

roger

Guitar 2 D||------|------|------|------|------|------|------|------|------|------|------|A||------|------|------|------|------|------|------|------|------|------|------|F||------|------|------|------|------|------|------|------|------|------|------|C||------|------|------|------|------|------|------|------|------|------|------|G||------|------|------|------|------|------|------|------|------|------|------|C||------|------|------|------|------|------|------|------|------|------|------|
------|------|------|------|------|------|------|------|------|------|------|------|------|------|------|------|------|------|------|------|------|------|------|------|------|------|------|------|------|------|------|------|------|------|------|------|------|------|------|------|------|------|------|------|------|------|------|------|------|------|------|------|------|------|------|------|------|------|------|------|------|------|------|------|------|------|
------|------|------|------|------|------|------|------|------|------|------|------|------|------|------|------|------|------|------|------|------|------|------|------|------|------|------|------|------|------|------|------|------|------|------|------|------|------|------|------|------|------|------|------|------|------|------|------|------|------|------|------|------|------|------|------|------|------|------|------|
-------------------|--------------------|-------------------|-------------------|--------------------|-------------------|-------------------|--------------------|-------------------|--7----------------|--------------7--7--|--7----------------|--7----------------|--------------7--7--|--7----------------|--7----------------|--------------7--7--|--7----------------|
--------------------|-------------------|--------------------|--------------------|-------------------|--------------------|--------------------|-------------------|--------------------|--------------7--7--|--3----------------|--------------3--3--|--------------7--7--|--3----------------|--------------3--3--|--------------7--7--|--3----------------|--------------3--3--|
-------------------|--------------------|-------------------|-------------------|--------------------|-------------------|-------------------|--------------------|-------------------|--0----------------|--------------0--0--|--7----------------|--0----------------|--------------0--0--|--7----------------|--0----------------|--------------0--0--|--7----------------|
--------------------|-------------------|--------------------|--------------------|-------------------|--------------------|--------------------|-------------------|--------------------|--------------7--7--|--7----------------|--------------7--7--|--------------7--7--|--7----------------|--------------7--7--|--------------7--7--|--7----------------|--------------7--7--|
-------------------|--------------------|-------------------|------------------|-------------------|--------------------|-------------------|------------------|-------------------|--------------------|-------------------|------------------|--3----------------|--------------3--3--|--0----------------|------------------|--3----------------|--------------3--3--|--0----------------|------------------|--3----------------|--------------3--3--|--0----------------|------------------|
------------------------|------------------------|------------------------|------------------------|------------------------|------------------------|------------------------|------------------------|------------------------|------------------------|------------------------|------------------------|--7--7--7----7--7--7----|--7--7--7----7--7--7----|--3--3--3----3--3--3----|--7--7--7----7--7--7----|--7--7--7----7--7--7----|--3--3--3----3--3--3----|
------------------------|------------------------|------------------------|------------------------|------------------------|------------------------|------------------------|------------------------|------------------------|------------------------|------------------------|------------------------|--0--0--0----0--0--0----|--7--7--7----7--7--7----|--7--7--7----7--7--7----|--0--0--0----0--0--0----|--7--7--7----7--7--7----|--7--7--7----7--7--7----|
------------------------|------------------------|------------------------|------------------------|------------------------|------------------------|------------------------|------------------------|------------------------|------------------------|------------------------|------------------------|--3--3--3----3--3--3----|--0--0--0----0--0--0----|--7--7--7----7--7--7----|--3--3--3----3--3--3----|--0--0--0----0--0--0----|--7--7--7----7--7--7----|
------------------------|------------------------|------------------------|------------------------|------------------------|------------------------|------------------------|------------------------|------------------------|------------------------|------------------------|------------------------|--7--7--7----7--7--7----|--3--3--3----3--3--3----|--0--0--0----0--0--0----|--7--7--7----7--7--7----|--3--3--3----3--3--3----|--0--0--0----0--0--0----|
------------------------|------------------------|------------------------|------------------------|------------------------|------------------------|------------------------|------------------------|------------------------|------------------------|------------------------|------------------------|--7--7--7----7--7--7----|--7--7--7----7--7--7----|--3--3--3----3--3--3----|--7--7--7----7--7--7----|--7--7--7----7--7--7----|--3--3--3----3--3--3----|
-------------------------|-------------------|------------------|-------------------------|-------------------|------------------|-------------------------|-------------------|------------------|-------------------------|--7----------------|------------------|--0--0--0----0--0--0--0--|--7----------------|------------------|--0--0--0----0--0--0--0--|--7----------------|------------------|
-------------------|--------------------|-------------------|------------------|-------------------|--------------------|-------------------|------------------|-------------------|--------------------|-------------------|------------------|--7----------------|--------------7--7--|--0----------------|------------------|--7----------------|--------------7--7--|--0----------------|------------------|--7----------------|--------------7--7--|--0----------------|------------------|
-------------------|--------------------|-------------------|------------------|-------------------|--------------------|-------------------|------------------|-------------------|--------------------|-------------------|------------------|--0----------------|--------------0--0--|--7----------------|------------------|--0----------------|--------------0--0--|--7----------------|------------------|--0----------------|--------------0--0--|--7----------------|------------------|
-------------------|--------------------|-------------------|------------------|-------------------|--------------------|-------------------|------------------|-------------------|--------------------|-------------------|------------------|--7----------------|--------------7--7--|--0----------------|------------------|--7----------------|--------------7--7--|--0----------------|------------------|--7----------------|--------------7--7--|--0----------------|------------------|
-------------------|--------------------|------------------------|-------------------|--------------------|------------------------|-------------------|--------------------|------------------------|--0----------------|--------------0--0--|------------------------|--0----------------|--------------0--0--|--7--7--7----7--7--7----|--0----------------|--------------0--0--|--7--7--7----7--7--7----|
------------------------|------------------------|------------------------|------------------------|------------------------|------------------------|------------------------|------------------------|------------------------|------------------------|------------------------|------------------------|--7--7--7----7--7--7----|--3--3--3----3--3--3----|--0--0--0----0--0--0----|--7--7--7----7--7--7----|--3--3--3----3--3--3----|--0--0--0----0--0--0----|
------------------------|------------------------|------------------------|------------------------|------------------------|------------------------|------------------------|------------------------|------------------------|------------------------|------------------------|--5--5--5----5--5--5----|--7--7--7----7--7--7----|--7--7--7----7--7--7----|--3--3--3----3--3--3----|--7--7--7----7--7--7----|--7--7--7----7--7--7----|--3--3--3----3--3--3----|
------------------------|---------------------|------------------|------------------------|---------------------|------------------|------------------------|---------------------|------------------|--7--7--7----7--7--7----|--------9------------|------------------|--5--5--5----5--5--5----|--7--7--7------------|------------------|--5--5--5----5--5--5----|--7--7--7------------|------------------|
---------------------|------------------|---------------------|---------------------|------------------|---------------------|---------------------|------------------|---------------------|--------5------------|------------------|--------9------------|--3--3--3------------|------------------|--7--7--7------------|--3--3--3------------|------------------|--7--7--7------------|
------------------|--------------------------|--------------------------|------------------|--------------------------|--------------------------|------------------|--------------------------|--------------------------|------------------|--5--------5--------7-----|--7--------7--------7-----|------------------|-----3--3-----3--3-----3--|-----3--3-----3--3-----3--|------------------|-----3--3-----3--3-----3--|-----3--3-----3--3-----3--|
---------------------|------------------|---------------------|---------------------|------------------|---------------------|---------------------|------------------|---------------------|--------9------------|------------------|--------5------------|--7--7--7------------|------------------|--3--3--3------------|--7--7--7------------|------------------|--3--3--3------------|
------------------|---------------------|------------------|------------------|---------------------|------------------|------------------|---------------------|------------------|------------------|--------9------------|------------------|------------------|--7--7--7------------|------------------|------------------|--7--7--7------------|------------------|
--------------------------|--------------------------|--------------------------|--------------------------|--------------------5-----|--4-----------------------|--5--------7--------------|--------5-----7-----3-----|-----3--3-----3--3-----3--|-----3-----3-----3-----3--|-----3--3-----3--3-----3--|-----3-----3-----3-----3--|
--------------------------|--------------------------|--------------------------|--------------------------|--------------------5-----|--4-----------------------|--5--------7--------------|--------5-----7-----3-----|-----3--3-----3--3-----3--|-----3-----3-----3-----3--|-----3--3-----3--3-----3--|-----3-----3-----3-----3--|
--------------------------|--------------------------|--------------------------|--------------------------|--------------------5-----|--4-----------------------|--3--------5--------------|--------5-----7-----3-----|-----0--0-----0--0-----0--|-----0-----0-----0-----0--|-----0--0-----0--0-----0--|-----0-----0-----0-----0--|
--------------------------|--------------------------|--------------------------|--------------------------|--------------------5-----|--4-----------------------|--3--------5--------------|--------5-----7-----3-----|-----0--0-----0--0-----0--|-----0-----0-----0-----0--|-----0--0-----0--0-----0--|-----0-----0-----0-----0--|
--------------------------|--------------------------|--------------------------|--------------------------|--------------------5-----|--4-----------------------|--5--------7--------------|--------5-----7-----3-----|-----3--3-----3--3-----3--|-----3-----3-----3-----3--|-----3--3-----3--3-----3--|-----3-----3-----3-----3--|
--------------------------|--------------------------|--------------------------|--------------------------|--------------------5-----|--4-----------------------|--5--------7--------------|--------5-----7-----3-----|-----3--3-----3--3-----3--|-----3-----3-----3-----3--|-----3--3-----3--3-----3--|-----3-----3-----3-----3--|
--------------------------|--------------------------|--------------------------|--------------------------|--------------------5-----|--4-----------------------|--3--------5--------------|--------5-----7-----3-----|-----0--0-----0--0-----0--|-----0-----0-----0-----0--|-----0--0-----0--0-----0--|-----0-----0-----0-----0--|
--------------------------|--------------------------|--------------------------|--------------------------|--------------------5-----|--4-----------------------|--3--------5--------------|--------5-----7-----3-----|-----0--0-----0--0-----0--|-----0-----0-----0-----0--|-----0--0-----0--0-----0--|-----0-----0-----0-----0--|
----------------------------|----|----------------------------|----|----------------------------|----|----------------------------|----|----------------------------|----|----------------------------|----|----------------------------|----|----------------------------|----|--7-7-7-7-7-7-7-7-7--7------|----|--3-3-3-3-3-3-3-3-3--3------|----|--7-7-7-7-7-7-7-7-7--7------|----|--3-3-3-3-3-3-3-3-3--3------|----|
----------------------------|----|----------------------------|----|----------------------------|----|----------------------------|----|----------------------------|----|----------------------------|----|----------------------------|----|----------------------------|----|--7-7-7-7-7-7-7-7-7--7------|----|--0-0-0-0-0-0-0-0-0--0------|----|--7-7-7-7-7-7-7-7-7--7------|----|--0-0-0-0-0-0-0-0-0--0------|----|
----------------------------|----|----------------------------|----|----------------------------|----|----------------------------|----|----------------------------|----|----------------------------|----|----------------------------|----|----------------------------|----|--7-7-7-7-7-7-7-7-7--7------|----|--3-3-3-3-3-3-3-3-3--3------|----|--7-7-7-7-7-7-7-7-7--7------|----|--3-3-3-3-3-3-3-3-3--3------|----|
----------------------------|----|----------------------------|----|----|----|----------------------------|----|----------------------------|----|----|----|----------------------------|----|----------------------------|----|----|----|----------------------------|----|----------------------------|----|----|----|--7-7-7-7-7-7-7-7-7--7------|----|--0-0-0-0-0-0-0-0-0--0------|----|----|----|--7-7-7-7-7-7-7-7-7--7------|----|--0-0-0-0-0-0-0-0-0--0------|----|----|----|
----|----|----|----|----|----|----|----|----|----|----|----|----|----|----|----|----|----|----|----|----|----|----|----|----|----|----|----|----|----|----|----|----|----|----|----|----|----|----|----|----|----|----|----|----|----|----|----|----|----|----|----|----|----|----|----|----|----|----|----|----|----|----|----|----|----|----|----|----|----|----|----|----|----|----|----|----|----|----|----|----|----|----|----|
------------------------|------------------------|------------------------|------------------------|------------------------|------------------------|------------------------|------------------------|------------------------|--7----------7----------|--7----------7----------|--5----------5----------|--7----7--7--7----7--7--|--7----7--7--7----7--7--|--5----5--5--5----5--5--|--7----7--7--7----7--7--|--7----7--7--7----7--7--|--5----5--5--5----5--5--|
------------------------|------------------------|------------------------|------------------------|------------------------|------------------------|------------------------|------------------------|------------------------|--5----------5----------|--0----------0----------|--0----------0----------|--5----5--5--5----5--5--|--0----0--0--0----0--0--|--0----0--0--0----0--0--|--5----5--5--5----5--5--|--0----0--0--0----0--0--|--0----0--0--0----0--0--|
------------------------|------------------------|------------------------|------------------------|------------------------|------------------------|------------------------|------------------------|------------------------|--3----------3----------|--2----------2----------|--7----------7----------|--3----3--3--3----3--3--|--2----2--2--2----2--2--|--7----7--7--7----7--7--|--3----3--3--3----3--3--|--2----2--2--2----2--2--|--7----7--7--7----7--7--|
------------------------|------------------------|------------------------|------------------------|------------------------|------------------------|------------------------|------------------------|------------------------|--7----------7----------|--5----------5----------|--5----------5----------|--7----7--7--7----7--7--|--5----5--5--5----5--5--|--5----5--5--5----5--5--|--7----7--7--7----7--7--|--5----5--5--5----5--5--|--5----5--5--5----5--5--|
------------------------|------------------------|------------------------|------------------------|------------------------|------------------------|------------------------|------------------------|------------------------|--0----------0----------|--0----------0----------|--3----------3----------|--0----0--0--0----0--0--|--0----0--0--0----0--0--|--3----3--3--3----3--3--|--0----0--0--0----0--0--|--0----0--0--0----0--0--|--3----3--3--3----3--3--|
-----------------------|------------------------|------------------------|-----------------------|------------------------|------------------------|-----------------------|------------------------|------------------------|--2----------2----3----|------------------------|------------------------|--2----2--2--2----3----|--7--7--7----7--7--7----|--7--7--7----7--7--7----|--2----2--2--2----3----|--7--7--7----7--7--7----|--7--7--7----7--7--7----|
------------------------|------------------------|------------------------|------------------------|------------------------|------------------------|------------------------|------------------------|------------------------|------------------------|------------------------|------------------------|--3--3--3----3--3--3----|--0--0--0----0--0--0----|--7--7--7----7--7--7----|--3--3--3----3--3--3----|--0--0--0----0--0--0----|--7--7--7----7--7--7----|
------------------------|------------------------|------------------------|------------------------|------------------------|------------------------|------------------------|------------------------|------------------------|------------------------|------------------------|------------------------|--7--7--7----7--7--7----|--3--3--3----3--3--3----|--0--0--0----0--0--0----|--7--7--7----7--7--7----|--3--3--3----3--3--3----|--0--0--0----0--0--0----|
------------------------|------------------------|------------------------|------------------------|------------------------|------------------------|------------------------|------------------------|------------------------|------------------------|------------------------|------------------------|--7--7--7----7--7--7----|--7--7--7----7--7--7----|--3--3--3----3--3--3----|--7--7--7----7--7--7----|--7--7--7----7--7--7----|--3--3--3----3--3--3----|
------------------------|------------------------|------------------------|------------------------|------------------------|------------------------|------------------------|------------------------|------------------------|------------------------|------------------------|------------------------|--0--0--0----0--0--0----|--7--7--7----7--7--7----|--7--7--7----7--7--7----|--0--0--0----0--0--0----|--7--7--7----7--7--7----|--7--7--7----7--7--7----|
------------------------|-------------------------|-------------------|------------------------|-------------------------|-------------------|------------------------|-------------------------|-------------------|------------------------|-------------------------|--7----------------|--3--3--3----3--3--3----|--0--0--0----0--0--0--0--|--7----------------|--3--3--3----3--3--3----|--0--0--0----0--0--0--0--|--7----------------|
------------------|-------------------|--------------------|-------------------|------------------|-------------------|--------------------|-------------------|------------------|-------------------|--------------------|-------------------|------------------|--7----------------|--------------7--7--|--0----------------|------------------|--7----------------|--------------7--7--|--0----------------|------------------|--7----------------|--------------7--7--|--0----------------|
------------------|-------------------|--------------------|-------------------|------------------|-------------------|--------------------|-------------------|------------------|-------------------|--------------------|-------------------|------------------|--0----------------|--------------0--0--|--7----------------|------------------|--0----------------|--------------0--0--|--7----------------|------------------|--0----------------|--------------0--0--|--7----------------|
------------------|-------------------|--------------------|-------------------|------------------|-------------------|--------------------|-------------------|------------------|-------------------|--------------------|-------------------|------------------|--7----------------|--------------7--7--|--0----------------|------------------|--7----------------|--------------7--7--|--0----------------|------------------|--7----------------|--------------7--7--|--0----------------|
------------------|-------------------|--------------------|------------------|-------------------|--------------------|------------------|-------------------|--------------------|------------------|--0----------------|--------------0--0--|------------------|--0----------------|--------------0--0--|------------------|--0----------------|--------------0--0--|
------------------------|------------------------|------------------------|------------------------|------------------------|------------------------|------------------------|------------------------|------------------------|------------------------|------------------------|------------------------|--7--7--7----7--7--7----|--7--7--7----7--7--7----|--3--3--3----3--3--3----|--7--7--7----7--7--7----|--7--7--7----7--7--7----|--3--3--3----3--3--3----|
------------------------|------------------------|------------------------|------------------------|------------------------|------------------------|------------------------|------------------------|------------------------|------------------------|------------------------|------------------------|--0--0--0----0--0--0----|--7--7--7----7--7--7----|--7--7--7----7--7--7----|--0--0--0----0--0--0----|--7--7--7----7--7--7----|--7--7--7----7--7--7----|
------------------------|------------------------|----------------------------|------------------------|------------------------|----------------------------|------------------------|------------------------|----------------------------|------------------------|------------------------|----------------------------|--3--3--3----3--3--3----|--0--0--0----0--0--0----|--7-7-7-7-7-7-7-7-7--7------|--3--3--3----3--3--3----|--0--0--0----0--0--0----|--7-7-7-7-7-7-7-7-7--7------|
----|----------------------------|----|----------------------------|----|----|----------------------------|----|----------------------------|----|----|----------------------------|----|----------------------------|----|----|----------------------------|----|----------------------------|----|----|--3-3-3-3-3-3-3-3-3--3------|----|--7-7-7-7-7-7-7-7-7--7------|----|----|--3-3-3-3-3-3-3-3-3--3------|----|--7-7-7-7-7-7-7-7-7--7------|----|
----------------------------|---------------------|------------------------|----------------------------|---------------------|------------------------|----------------------------|---------------------|------------------------|----------------------------|----------9----10----|--7----------7----------|--0-0-0-0-0-0-0-0-0--0------|---------------------|--7----7--7--7----7--7--|--0-0-0-0-0-0-0-0-0--0------|---------------------|--7----7--7--7----7--7--|
------------------------|------------------------|------------------------|------------------------|------------------------|------------------------|------------------------|------------------------|------------------------|--7----------7----------|--5----------5----------|--5----------5----------|--7----7--7--7----7--7--|--5----5--5--5----5--5--|--5----5--5--5----5--5--|--7----7--7--7----7--7--|--5----5--5--5----5--5--|--5----5--5--5----5--5--|
------------------------|------------------------|------------------------|------------------------|------------------------|------------------------|------------------------|------------------------|------------------------|--0----------0----------|--0----------0----------|--3----------3----------|--0----0--0--0----0--0--|--0----0--0--0----0--0--|--3----3--3--3----3--3--|--0----0--0--0----0--0--|--0----0--0--0----0--0--|--3----3--3--3----3--3--|
------------------------|------------------------|------------------------|------------------------|------------------------|------------------------|------------------------|------------------------|------------------------|--2----------2----------|--7----------7----------|--7----------7----------|--2----2--2--2----2--2--|--7----7--7--7----7--7--|--7----7--7--7----7--7--|--2----2--2--2----2--2--|--7----7--7--7----7--7--|--7----7--7--7----7--7--|
------------------------|------------------------|------------------------|------------------------|------------------------|------------------------|------------------------|------------------------|------------------------|--5----------5----------|--5----------5----------|--0----------0----------|--5----5--5--5----5--5--|--5----5--5--5----5--5--|--0----0--0--0----0--0--|--5----5--5--5----5--5--|--5----5--5--5----5--5--|--0----0--0--0----0--0--|
------------------------|------------------------|----------------------|----|------------------------|------------------------|----------------------|----|------------------------|------------------------|----------------------|----|--0----------0----------|--3----------3----------|--2----------2--------|----|--0----0--0--0----0--0--|--3----3--3--3----3--3--|--2----2--2--2--------|----|--0----0--0--0----0--0--|--3----3--3--3----3--3--|--2----2--2--2--------|----|
----|----|----|----|----|----|----|----|----|----|----|----|----|----|----|----|----|----|----|----|----|----|----|----|----|----|----|----|----|----|----|----|----|----|----|----|----|----|----|----|----|----|----|----|----|----|----|----|----|----|----|----|----|----|----|----|----|----|----|----|----|----|----|----|----|----|----|----|----|----|----|----|----|----|----|----|----|----|----|----|----|----|----|----|----|----|----|----|----|----|
------------------------|------------------------|------------------------|------------------------|------------------------|------------------------|------------------------|------------------------|------------------------|--7----------7----------|--7----------7----------|--5----------5----------|--7----7--7--7----7--7--|--7----7--7--7----7--7--|--5----5--5--5----5--5--|--7----7--7--7----7--7--|--7----7--7--7----7--7--|--5----5--5--5----5--5--|
------------------------|------------------------|------------------------|------------------------|------------------------|------------------------|------------------------|------------------------|------------------------|--5----------5----------|--0----------0----------|--0----------0----------|--5----5--5--5----5--5--|--0----0--0--0----0--0--|--0----0--0--0----0--0--|--5----5--5--5----5--5--|--0----0--0--0----0--0--|--0----0--0--0----0--0--|
------------------------|------------------------|------------------------|------------------------|------------------------|------------------------|------------------------|------------------------|------------------------|--3----------3----------|--2----------2----------|--7----------7----------|--3----3--3--3----3--3--|--2----2--2--2----2--2--|--7----7--7--7----7--7--|--3----3--3--3----3--3--|--2----2--2--2----2--2--|--7----7--7--7----7--7--|
------------------------|------------------------|------------------------|------------------------|------------------------|------------------------|------------------------|------------------------|------------------------|--7----------7----------|--5----------5----------|--5----------5----------|--7----7--7--7----7--7--|--5----5--5--5----5--5--|--5----5--5--5----5--5--|--7----7--7--7----7--7--|--5----5--5--5----5--5--|--5----5--5--5----5--5--|
------------------------|------------------------|------------------------|------------------------|------------------------|------------------------|------------------------|------------------------|------------------------|--0----------0----------|--0----------0----------|--3----------3----------|--0----0--0--0----0--0--|--0----0--0--0----0--0--|--3----3--3--3----3--3--|--0----0--0--0----0--0--|--0----0--0--0----0--0--|--3----3--3--3----3--3--|
------------------------|----------------------|--------------------------|------------------------|--13--------13--------|--15----13----12----13----|------------------------|----------------------|--------------------------|--2----------2----------|----------------------|--------------------------|--2----2--2--2----2--2--|----------------------|--------------------------|--2----2--2--2----2--2--|----------------------|--------------------------|
----------------------------|----------------------|-------------------|--10----12----12----12--10--|--8------------10--8--|--6----------------|----------------------------|----------------------|-------------------|----------------------------|----------------------|-------------------|----------------------------|----------------------|-------------------|----------------------------|----------------------|-------------------|
-----------------------|--------------------|----------------------|--10--------8----10----|--15----------------|--13------------12----|-----------------------|--------------------|----------------------|-----------------------|--------------------|----------------------|-----------------------|--------------------|----------------------|-----------------------|--------------------|----------------------|
--------------------------|----------------------------|--15----13--------12--13--|--15--13--12--10--12--------|--------------------------|----------------------------|--------------------------|----------------------------|--------------------------|----------------------------|--------------------------|----------------------------|
----------------------------------|------------------------|--12--13--15--13--12--10--12--10--|--8----10--------8--10--|----------------------------------|------------------------|----------------------------------|------------------------|----------------------------------|------------------------|----------------------------------|------------------------|
---------------------|-----------------------|--6------------6--8--|--10--------8----10----|---------------------|-----------------------|---------------------|-----------------------|---------------------|-----------------------|---------------------|-----------------------|
----------------------------------|--------------------------------|------------------15--13--12--13--|--17--15--13--12--13--12--17----|--10--12--14--12------------------|--------------------------------|----------------------------------|--------------------------------|----------------------------------|--------------------------------|----------------------------------|--------------------------------|
--------------------------------------------------|--18-18-18-18-13-13-13-13-17-17-17-17-12-12-12-12-|--------------------------------------------------|--------------------------------------------------|--------------------------------------------------|--------------------------------------------------|
------------------------------------|----------------------------------|--15-15-15-15-10-10-10-10-13--------|------------------15--13--12--13--|------------------------------------|--10--12--14--12------------------|------------------------------------|----------------------------------|------------------------------------|----------------------------------|------------------------------------|----------------------------------|
------------------------|---------------------|-----------------------|--15----13----13--------|--6----8----8--------|--8----10----10--------|------------------------|---------------------|-----------------------|------------------------|---------------------|-----------------------|------------------------|---------------------|-----------------------|------------------------|---------------------|-----------------------|
----------------------------------|--------------------------------|------------------15--13--12--13--|--17--15--13--12--13--12--17----|--10--12--14--12------------------|--------------------------------|----------------------------------|--------------------------------|----------------------------------|--------------------------------|----------------------------------|--------------------------------|
--------------------------------------------------|--18-18-18-18-13-13-13-13-17-17-17-17-12-12-12-12-|--------------------------------------------------|--------------------------------------------------|--------------------------------------------------|--------------------------------------------------|
----------------------------------------------|--15-15-15-15-10-10-10-10-13-13-13-13-6-6-6-6-|----------------------------------------------|----------------------------------------------|----------------------------------------------|----------------------------------------------|
--------------------------------------------------|--17-17-17-17-12-12-12-12-15-15-15-15-10-10-10-10-|--------------------------------------------------|--------------------------------------------------|--------------------------------------------------|--------------------------------------------------|
--------------------------------------------|------------------------------|--13-13-13-13-15-15-15-15-13-13-13-13-12----|--8--10--10--10--10----10--8--|--------------------------------------------|------------------------------|--------------------------------------------|------------------------------|--------------------------------------------|------------------------------|--------------------------------------------|------------------------------|
----------------------------|--------------------------------------------------|--15--13--13--13------12----|--15-15-15-15-15-15-15-15-13-13-13-13-13-13-13-13-|----------------------------|--------------------------------------------------|----------------------------|--------------------------------------------------|----------------------------|--------------------------------------------------|----------------------------|--------------------------------------------------|
--------------------------------------------------|--------------------|----|--17-17-17-17-17-17-17-17-15-15-15-15-15-15-15-15-|--13----------------|----|--------------------------------------------------|--------------------|----|--------------------------------------------------|--------------------|----|--------------------------------------------------|--------------------|----|--------------------------------------------------|--------------------|----|
----|----|----|----|----|----|----||----|----|----|----|----|----|----||----|----|----|----|----|----|----||----|----|----|----|----|----|----||----|----|----|----|----|----|----||----|----|----|----|----|----|----||
Tap to rate this tab
 
# A B C D E F G H I J K L M N O P Q R S T U V W X Y Z