Societys Plague - The Few And The Fallen tab

roger's guitar
   
guitar 2 D||------|------|------|------|------|----|----|----|A||------|------|------|------|------|----|----|----|F||------|------|------|------|------|----|----|----|C||------|------|------|------|------|----|----|----|G||------|------|------|------|------|----|----|----|C||------|------|------|------|------|----|----|----|
--------------------------------------|-------------------|-------------------|--------------------------------------|-------------------|-------------------|--------------------------------------|-------------------|-------------------|--------------------------------------|-------------------|-------------------|--14-13/12/11/10/9/8/7/6/5/4/3/2/1/0--|--0----------------|----------7--------|--14/13/12/11/10/9/8/7/6/5/4/3/2/1/0--|--0----------------|----------7--------|
-------------------|-------------------|-------------------|-------------------|-------------------|-------------------|-------------------|-------------------|-------------------|-------------------|-------------------|-------------------|-------------------|-------------------|-------------------|-------------------|--4----------------|--2----------------|--0----------------|----------7--------|--4----------------|--2----------------|--0----------------|----------7--------|
-------------------|-------------------|-------------------|-------------------|-------------------|-------------------|-------------------|-------------------|-------------------|-------------------|-------------------|-------------------|-------------------|-------------------|-------------------|-------------------|--4----------------|--2----------------|--0----------------|----------7--------|--4----------------|--2----------------|--0----------------|----------7--------|
-------------------|-------------------|-------------------|-------------------|-------------------|-------------------|-------------------|-------------------|-------------------|-------------------|-------------------|-------------------|-------------------|-------------------|-------------------|-------------------|--4----------------|--2----------------|--0----------------|----------7--------|--4----------------|--2----------------|--0----------------|----------7--------|
-------------------|-------------------|-------------------|------------------|-------------------|-------------------|-------------------|------------------|-------------------|-------------------|-------------------|------------------|-------------------|-------------------|-------------------|------------------|--4----------------|--2----------------|--0----------------|------------------|--4----------------|--2----------------|--0----------------|------------------|
--------------------------|----------------------------|--------------------------|----------------------------|--------------------6-----|----------------------------|--6--------7--------------|--9-----6-----9-11-9--7--6--|-----0--0-----0--0-----0--|-----0-----0----------------|-----0--0-----0--0-----0--|-----0-----0----------------|
---------------------------|-----------------------------|---------------------------|-----------------------------|---------------------------|-----------------------------|--4--------4---------------|-----------------------------|--4--0--0--4----4-4-4--4-4-|--4--4-4-4--4-4-4--4-4-4--4--|--4--0--0--4----4-4-4--4-4-|--4--4-4-4--4-4-4--4-4-4--4--|
---------------------------|-----------------------------|---------------------------|-----------------------------|---------------------------|-----------------------------|--4--------4---------------|-----------------------------|--4--0--0--4----4-4-4--4-4-|--4--4-4-4--4-4-4--4-4-4--4--|--4--0--0--4----4-4-4--4-4-|--4--4-4-4--4-4-4--4-4-4--4--|
--------------------------|---------------------------|--------------------------|---------------------------|--------------------6-----|---------------------------|--6--------7--------------|--9-----6-----7-9-7--6--4--|-----0--0-----0--0-----0--|-----0-----0---------------|-----0--0-----0--0-----0--|-----0-----0---------------|
--------------------------|----------------------------|--------------------------|----------------------------|--------------------6-----|----------------------------|--6--------7--------------|--9-----6-----9-11-9--7--6--|-----0--0-----0--0-----0--|-----0-----0----------------|-----0--0-----0--0-----0--|-----0-----0----------------|
---------------------------|-----------------------------|---------------------------|-----------------------------|---------------------------|-----------------------------|--4--------4---------------|-----------------------------|--4--0--0--4----4-4-4--4-4-|--4--4-4-4--4-4-4--4-4-4--4--|--4--0--0--4----4-4-4--4-4-|--4--4-4-4--4-4-4--4-4-4--4--|
---------------------------|-----------------------------|---------------------------|-----------------------------|---------------------------|-----------------------------|--4--------4---------------|-----------------------------|--4--0--0--4----4-4-4--4-4-|--4--4-4-4--4-4-4--4-4-4--4--|--4--0--0--4----4-4-4--4-4-|--4--4-4-4--4-4-4--4-4-4--4--|
--------------------------|---------------------------|--------------------------|---------------------------|--------------------6-----|---------------------------|--6--------7--------------|--9-----6-----7-9-7--6--4--|-----0--0-----0--0-----0--|-----0-----0---------------|-----0--0-----0--0-----0--|-----0-----0---------------|
--------------------------|----------------------------|--------------------------|----------------------------|--------------------6-----|----------------------------|--6--------7--------------|--9-----6-----9-11-9--7--6--|-----0--0-----0--0-----0--|-----0-----0----------------|-----0--0-----0--0-----0--|-----0-----0----------------|
---------------------------|-----------------------------|---------------------------|-----------------------------|---------------------------|-----------------------------|--4--------4---------------|-----------------------------|--4--0--0--4----4-4-4--4-4-|--4--4-4-4--4-4-4--4-4-4--4--|--4--0--0--4----4-4-4--4-4-|--4--4-4-4--4-4-4--4-4-4--4--|
---------------------------|-----------------------------|---------------------------|-----------------------------|---------------------------|-----------------------------|--4--------4---------------|-----------------------------|--4--0--0--4----4-4-4--4-4-|--4--4-4-4--4-4-4--4-4-4--4--|--4--0--0--4----4-4-4--4-4-|--4--4-4-4--4-4-4--4-4-4--4--|
--------------------------|--------------------------|--------------------------|--------------------------|--------------------------|--------------7-----6-----|--4--------6--------7-----|--6-----7-----------------|--------------------------|--------------------------|-----0--0-----0--0-----0--|-----0-----0-----0-----0--|
--------------------------|--------------------------|--------------------------|--------------------------|--------------------------|--------------9-----7-----|--6--------7--------9-----|--7-----9-----------------|--------------------------|--------------------------|-----0--0-----0--0-----0--|-----0-----0-----0-----0--|
---------------------------|-----------------------------|---------------------------|-----------------------------|---------------------------|-----------------------------|--4--------4---------------|-----------------------------|--4--0--0--4----4-4-4--4-4-|--4--4-4-4--4-4-4--4-4-4--4--|--4--0--0--4----4-4-4--4-4-|--4--4-4-4--4-4-4--4-4-4--4--|
---------------------------|-----------------------------|---------------------------|-----------------------------|---------------------------|-----------------------------|--4--------4---------------|-----------------------------|--4--0--0--4----4-4-4--4-4-|--4--4-4-4--4-4-4--4-4-4--4--|--4--0--0--4----4-4-4--4-4-|--4--4-4-4--4-4-4--4-4-4--4--|
-------------------------|-------------------------|----------------------|-------------------------|-------------------------|----------------------|-------------------------|-------------------------|----------------------|-------------------------|-------------------------|----------------------|--0--0--0--0----0--0--0--|--0--0--0--0----2--2--2--|--4--4----4--4--------|--0--0--0--0----0--0--0--|--0--0--0--0----2--2--2--|--4--4----4--4--------|
------------------|----------------------|-----------------------|------------------|----------------------|-----------------------|------------------|----------------------|-----------------------|------------------|----------------------|-----------------------|------------------|--4--4----4--4--------|--4--4----2--2----2----|------------------|--4--4----4--4--------|--4--4----2--2----2----|
----------------------|------------------|------------------------|----------------------|------------------|------------------------|----------------------|------------------|------------------------|----------------------|------------------|------------------------|--0--0----0--0--------|------------------|--0--0----0--0----0--0--|--0--0----0--0--------|------------------|--0--0----0--0----0--0--|
-----------------------|----------------------|------------------|-----------------------|----------------------|------------------|-----------------------|----------------------|------------------|-----------------------|----------------------|------------------|----0--0----0----2--2--|--4--4----4--4--------|------------------|----0--0----0----2--2--|--4--4----4--4--------|------------------|
----------------------|-----------------------|----------------------|----------------------|-----------------------|----------------------|----------------------|-----------------------|----------------------|----------------------|-----------------------|----------------------|--4--4----4--4--------|--4--4----2--2----2----|--0--0----0--0--------|--4--4----4--4--------|--4--4----2--2----2----|--0--0----0--0--------|
------------------|------------------------|----------------------|------------------|------------------------|----------------------|------------------|------------------------|----------------------|------------------|------------------------|-----------------2----|------------------|--0--0----0--0----0--0--|----0--0----0----2----|------------------|--0--0----0--0----0--0--|----0--0----0----2----|
-------------------|-------------------|-------------------|-------------------|-------------------|-------------------|-------------------|-------------------|-------------------|-------------------|-------------------|-------------------|-------------------|-------------------|-------------------|-------------------|--0----------------|----------7--------|--4----------------|--2----------------|--0----------------|----------7--------|--4----------------|--2----------------|
-------------------|-------------------|-------------------|-------------------|-------------------|-------------------|-------------------|-------------------|-------------------|-------------------|-------------------|-------------------|-------------------|-------------------|-------------------|-------------------|--0----------------|----------7--------|--4----------------|--2----------------|--0----------------|----------7--------|--4----------------|--2----------------|
-------------------|-------------------|-------------------|-------------------|-------------------|-------------------|-------------------|-------------------|-------------------|-------------------|-------------------|-------------------|-------------------|-------------------|-------------------|-------------------|--0----------------|----------7--------|--4----------------|--2----------------|--0----------------|----------7--------|--4----------------|--2----------------|
-------------------|-------------------|-------------------|-------------------|-------------------|-------------------|-------------------|-------------------|-------------------|-------------------|-------------------|-------------------|-------------------|-------------------|-------------------|-------------------|--0----------------|----------7--------|--4----------------|--2----------------|--0----------------|----------7--------|--4----------------|--2----------------|
-----------------|--------------------|---------------------|-----------------|--------------------|---------------------|-----------------|--------------------|---------------------|-----------------|--------------------|---------------------|--4-4-4----------|--------------4--4--|--4-4-4--------------|--4-4-4----------|--------------4--4--|--4-4-4--------------|
-------------------------|-----------------|--------------------|-------------------------|-----------------|--------------------|-------------------------|-----------------|--------------------|--------------------4----|-----------------|--------------------|--4-4-4------4-4-4--4----|--0-0-0----------|--------------0--0--|--4-4-4------4-4-4--4----|--0-0-0----------|--------------0--0--|
---------------------|-------------------------|-----------------|---------------------|-------------------------|-----------------|---------------------|-------------------------|-----------------|---------------------|--------------------0----|-----------------|--0-0-0--------------|--0-0-0------0-0-0--0----|--4-4-4----------|--0-0-0--------------|--0-0-0------0-0-0--0----|--4-4-4----------|
--------------------|---------------------|-------------------------|--------------------|---------------------|-------------------------|--------------------|---------------------|-------------------------|--------------------|---------------------|--------------------4----|--------------4--4--|--4-4-4--------------|--4-4-4------4-4-4--4----|--------------4--4--|--4-4-4--------------|--4-4-4------4-4-4--4----|
-----------------|--------------------|---------------------|-----------------|--------------------|---------------------|-----------------|--------------------|---------------------|-----------------|--------------------|---------------------|--0-0-0----------|--------------0--0--|--0-0-0--------------|--0-0-0----------|--------------0--0--|--0-0-0--------------|
-------------------------|---------------------------|-------------------------|-----7--10-----7--9--------|-------------------------|--6---------6--------6--6--|--------------------0----|---------------------------|--0-0-0------0-0-0--0----|---------------------------|--0-0-0------0-0-0--0----|---------------------------|
-----------------------------|---------------------------|--12-----7--10-----7--9--10--|-----7--10-----7--9--------|------6---------6------------|--6---------6--------6--6--|-----------------------------|---------------------------|-----------------------------|---------------------------|-----------------------------|---------------------------|
-------------------------|--------0--------2--------|--5--------4--------2----|--9-----7-----5-----7----|-----3--------3--------3--|--------3--------3-------|-----6-----6-----6-------|--2--------2--------2-----|-----2--------2----------|-------------------------|--------------------------|-------------------------|-------------------------|--------------------------|-------------------------|-------------------------|--------------------------|-------------------------|
--------5--------4--------|--7-----5-----4-----5----|-------|----|----|----|-----3--------3--------3--|-------------------------|-------|----|----|----|--2--------2--------2-----|-----2-----2-----2-------|-------|----|----|----|--------------------------|-------------------------|--4----|----|----|----|--------------------------|-------------------------|--4----|----|----|----|--------------------------|-------------------------|--4----|----|----|----|
-------|----|----|----|--------------------------|--------------------------|-------|----|----|----|--------------------------|--------------------------|-------|----|----|----|--------------------------|--------------------------|--4----|----|----|----|--4-----------------------|--------------------------|--4----|----|----|----|--4--4--4--4--4--4--4--4--|--4--4--4--4--4--4--4--4--|--4----|----|----|----|--4--4--4--4--4--4--4--4--|--4--4--4--4--4--4--4--4--|
--------------------------|--------------------------|--------------------------|--------------------------|--------------------------|--------------------------|--4-----------------------|--------------------------|--4--4--4--4--4--4--4--4--|--7-----5-----9-----12----|--4--4--4--4--4--4--4--4--|-----4-----4-----4--------|
--------------------------|--------------------------|--------------------------|--------------------------|--------------------------|--------------------------|--4-----------------------|--------------------------|--4--4--4--4--4--4--4--4--|--4--4--4--4--4--4--4--4--|--4--4--4--4--4--4--4--4--|--4--4--4--4--4--4--4--4--|
--------------------------|---------------------|--------------------------|--------------------------|---------------------|--------------------------|--------------------------|---------------------|--------------------------|--4-----------------------|---------------------|--4-----------------------|--4--4--4--4--4--4--4--4--|--7----5----9--------|--4--4--4--4--4--4--4--4--|--4--4--4--4--4--4--4--4--|---------------------|--4--4--4--4--4--4--4--4--|
--------------------------|--------------------------|--------------------------|--------------------------|--------------------------|--------------------------|--------------------------|--4-----------------------|--4--4--4--4--4--4--4--4--|--4--4--4--4--4--4--4--4--|--4--4--4--4--4--4--4--4--|--4--4--4--4--4--4--4--4--|
--------------------------|--------------------------|--------------------------|--------------------------|--------------------------|--------------------------|--------------------------|--4-----------------------|--7-----5-----9-----12----|--4--4--4--4--4--4--4--4--|-----4-----4-----4--------|--4--4--4--4--4--4--4--4--|
--------------------------|--------------------------|---------------------|--------------------------|--------------------------|---------------------|--------------------------|--------------------------|---------------------|--------------------------|--4-----------------------|---------------------|--4--4--4--4--4--4--4--4--|--4--4--4--4--4--4--4--4--|--7----5----9--------|--4--4--4--4--4--4--4--4--|--4--4--4--4--4--4--4--4--|---------------------|
-------------------|-------------------|-------------------|-------------------|-------------------|-------------------|-------------------|-------------------|-------------------|-------------------|-------------------|-------------------|-------------------|-------------------|-------------------|-------------------|--0----------------|----------7--------|--4----------------|--2----------------|--0----------------|----------7--------|--4----------------|--2----------------|
-------------------|-------------------|-------------------|-------------------|-------------------|-------------------|-------------------|-------------------|-------------------|-------------------|-------------------|-------------------|-------------------|-------------------|-------------------|-------------------|--0----------------|----------7--------|--4----------------|--2----------------|--0----------------|----------7--------|--4----------------|--2----------------|
-------------------|-------------------|-------------------|-------------------|-------------------|-------------------|-------------------|-------------------|-------------------|-------------------|-------------------|-------------------|-------------------|-------------------|-------------------|-------------------|--0----------------|----------7--------|--4----------------|--2----------------|--0----------------|----------7--------|--4----------------|--2----------------|
-------------------|-------------------|-------------------|-------------------|-------------------|-------------------|-------------------|-------------------|-------------------|-------------------|-------------------|-------------------|-------------------|-------------------|-------------------|-------------------|--0----------------|----------7--------|--4----------------|--2----------------|--0----------------|----------7--------|--4----------------|--2----------------|
--9--|----|----|----|----|----|----|----|----|----|----|----|----|----|----|-----|----|----|----|----|----|----|----|----|----|----|----|----|----|----|-----|----|----|----|----|----|----|----|----|----|----|----|----|----|----|-----|----|----|----|----|----|----|----|----|----|----|----|----|----|----|-----|----|----|----|----|----|----|----|----|----|----|----|----|----|----|-----|----|----|----|----|----|----|----|----|----|----|----|----|----|----|
----|--------------------------|--------------------------|----|--------------------------|--------------------------|----|--------------------------|--------------------------|----|--0--0--0--0--0--0--0--0--|--0--0--0--0--0--0--0--0--|----|--0--0--0--0--0--0--0--0--|--0--0--0--0--0--0--0--0--|----|--0--0--0--0--0--0--0--0--|--0--0--0--0--0--0--0--0--|
--------------------------|--------------------------|--------------------------|--------------------------|--------------------------|--------------------------|--4--4--4--4--4--4--4--4--|--2--2--2--2--2--2--2--2--|--4--4--4--4--4--4--4--4--|--2--2--2--2--2--2--2--2--|--4--4--4--4--4--4--4--4--|--2--2--2--2--2--2--2--2--|
--------------------------|--------------------------|--------------------------|--------------------------|--------------------------|--------------------------|--0--0--0--0--0--0--0--0--|--0--0--0--0--0--0--0--0--|--0--0--0--0--0--0--0--0--|--0--0--0--0--0--0--0--0--|--0--0--0--0--0--0--0--0--|--0--0--0--0--0--0--0--0--|
--------------------------|--------------------------|--------------------|--------------------------|--------------------------|--------------------|--------------------------|--------------------------|--11----------------|--4--4--4--4--4--4--4--4--|--2--2--2--2--2--2--2--2--|--------------------|--4--4--4--4--4--4--4--4--|--2--2--2--2--2--2--2--2--|--------------------|--4--4--4--4--4--4--4--4--|--2--2--2--2--2--2--2--2--|--------------------|
--------------------|--------------------|----------------------|--------------------|--------------------|----------------------|----------14--------|--18----------------|--16------------13----|--------------------|--------------------|----------------------|--------------------|--------------------|----------------------|--------------------|--------------------|----------------------|
--------------------|-------------------|--------------------|--------------------|-------------------|--------------------|--14----------------|----------9--------|--11----------------|--------------------|-------------------|--------------------|--------------------|-------------------|--------------------|--------------------|-------------------|--------------------|
---------------------|--------------------|--------------------|---------------------|--------------------|--------------------|--13------------9----|--11----------------|----------14--------|---------------------|--------------------|--------------------|---------------------|--------------------|--------------------|---------------------|--------------------|--------------------|
--------------------|----------------------|--------------------|--------------------|----------------------|--------------------|--18----------------|--16------------13----|--14----------------|--------------------|----------------------|--------------------|--------------------|----------------------|--------------------|--------------------|----------------------|--------------------|
-------------------|--------------------|--------------------|-------------------|--------------------|--------------------|----------9--------|--11----------------|--13----------------|-------------------|--------------------|--------------------|-------------------|--------------------|--------------------|-------------------|--------------------|--------------------|
-------------------|----|----|----|----|----|----||--7----------------|----|----|----|----|----|----||-------------------|----|----|----|----|----|----||-------------------|----|----|----|----|----|----||-------------------|----|----|----|----|----|----||-------------------|----|----|----|----|----|----||
Tap to rate this tab
 
# A B C D E F G H I J K L M N O P Q R S T U V W X Y Z