Sodom - My Atonement tab

"My Atonement"
by Sodom
from the album EXPURSE OF SODOMY
transcribed by Matt Johnsen
matt@amicrosys.com

INTRO 

----------1-----------------3-----------------1-----------------0-------|-------3-----3-----------3-----3-----------3-----3-----------3-----3----|----2-----------2-----2-----------2-----2-----------2-----2-----------2-|-0-----------------0-----------------0-----------------0----------------|------------------------------------------------------------------------|------------------------------------------------------------------------|
----------1-----------------3-----------------1-----------------0-------|-------3-----3-----------3-----3-----------3-----3-----------3-----3----|----2-----------2-----2-----------2-----2-----------2-----2-----------2-|-0-----------------0-----------------0-----------------0----------------|------------------------------------------------------------------------|------------------------------------------------------------------------|
------------------------------------------------------------------------|----------3-----------------3-----------------3-----------------3-------|-------0-----0-----------0-----0-----------0-----0-----------0-----0----|----0-----------0-----0-----------0-----0-----------0-----0-----------0-|-3-----------------3-----------------1-----------------1----------------|------------------------------------------------------------------------|
------------------------------------------------------------------------|----------3-----------------3-----------------3-----------------3-------|-------0-----0-----------0-----0-----------0-----0-----------0-----0----|----0-----------0-----0-----------0-----0-----------0-----0-----------0-|-3-----------------3-----------------1-----------------1----------------|------------------------------------------------------------------------|
------------------------------------------------------------------------|-----------5----------------------------------5-----------------5-------|--------5-----5-------------5--------------6-----6-----------6-----6----|-----7-----------7-------7-----7--------6-----------6-----6-----------4-|--7-------------------7--------------4-----------------4----------------|------------------------------------------------------------------------|
------------------------------------------------------------------------|-----------5----------------------------------7-----------------7-------|--------5-----5-------------5--------------8-----8-----------8-----8----|-----7-----------7-------7-----7--------8-----------8-----8-----------8-|--7-------------------7--------------6-----------------6----------------|------------------------------------------------------------------------|
------------------------------------------------------------------------|-----------5----------------------------------5-----------------5-------|--------5-----5-------------5--------------6-----6-----------6-----6----|-----7-----------7-------7-----7--------6-----------6-----6-----------4-|--7-------------------7--------------4-----------------4----------------|------------------------------------------------------------------------|
-------------------------------------5-||-----------5-------------------------5-||--------5-----5-------------5--------5-||-----7-----------7-------7-----7-----2-||--7-------------------7--------------0-||---------------------------------------||
PREVERSE play 6 times then ending A
H H------------|------------|| ------------|------------|| ------------|------------|| -0--2-----3-|------------|| -0-(0)-0--1-|-0--2-----3-|| ------------|-0-(0)-0--1-||
FILL A
--------------------------|---------------------------||--------------------------|---------------------------||--------------------------|---------------------------||--------------------------|---------------------------||--------------------------|---------------------------||-0--0--0--0-0-0--0--0-0-0-|-0--0-0-0--0--0-0-0--0-0-0-||
VERSE A
play 4 times H------------------|------------------|----------|----------||------------------|------------------|----------|----------||------------------|------------------|----------|----------||------------------|------------------|-0--3---3-|----------||------------------|------------------|-0-(0)--1-|-0--2---3-||-0-0-0-0--0-0-0-0-|-0-0-0-0--0-0-0-0-|----------|-0-(0)--1-||
CHORUS
--------------------|--------------------||--------------------|--------------------||--------------------|--------------------||-4-3--4-3-----------|-4-3--4-3-----------||-2-1--2-1--5-4--5-4-|-2-1--2-1--5-4--5-4-||-----------3-2--3-2-|-----------3-2--3-2-||
VERSE B play 9 times (on first time only skip first measure)
*******************------------------|------------------|------------------||------------------|------------------|------------------||------------------|------------------|------------------||------------------|------------------|-4-3-4-3----------||------------------|------------------|-2-1-2-1--5-4-5-4-||-0-0-0-0--0-0-0-0-|-0-0-0-0--0-0-0-0-|----------3-2-3-2-||
FILL B
--------------------|-----|-------|-----|--------------------|-----|-------|-----|--------------------|-----|-------|-----|-4-3--4-3-----------|-----|-------|-----|-2-1--2-1--5-4--5-4-|--2--|--(2)--|--4--|-----------3-2--3-2-|--0--|--(0)--|--2--|
VERSE C (the low sixteenth notes are very hard to pick out and might be wrong|)
---------------------------------|------------------------------|---------------------------------|------------------------------|---------------------------------|------------------------------|---------------------------------|------------------------------|---------------------------------|--------------------------5-6-|-0-0-2-2-0-0-2-2-0-0-2-2-0-0-2-2-|-0-0-2-2-0-0-2-2-0-0-2-0--3-4-|
---------------------------------|------------------------------||---------------------------------|------------------------------||---------------------------------|------------------------------||---------------------------------|--------------------------4-3-||---------------------------------|--------------------------2-1-||-0-0-2-2-0-0-2-2-0-0-2-2-0-0-2-2-|-0-0-2-2-0-0-2-2-0-0-2-0------||
FILL C play 2 times (see note for verse C)
---------------------------------|----------------------------------||---------------------------------|----------------------------------||---------------------------------|----------------------------------||---------------------------------|----------------------------------||-----1-1-----1-1-----1-1-----1-1-|-----2-2-----2-2-----2-2------2-2-||-0-0-2-2-0-0-2-2-0-0-2-2-0-0-2-2-|-0-0-3-3-0-0-3-3-0-0-3-3--0-0-3-3-||
play verse C 4 times play fill C 2 times FILL D
-----|-----||-----|-----||-----|-----||-----|-----||--4--|--2--||--2--|--0--||
SOLO RHYTHM play 3 times
------------------------------------|------------------------------------|------------------------------------|------------------------------------|------------------------------------|------------------------------------|------------------------------------|------------------------------------|------------------------------------|------------------------------------|-2-2-2-2--2-2-2-2--2-2-2-2--2-2-2-2-|-0-0-0-0--0-0-0-0--3-3-3-3--3-3-3-3-|
------------------------------------|------------------------------------|------------------------------------|------------------------------------|------------------------------------|------------------------------------|------------------------------------|------------------------------------|------------------------------------|------------------------------------|-2-2-2-2--2-2-2-2--2-2-2-2--2-2-2-2-|-0-0-0-0--0-0-0-0--3-3-3-3--3-3-3-3-|
------------------------------------|------------------------------------|------------------------------------|------------------------------------|------------------------------------|------------------------------------|------------------------------------|------------------------------------|-2-2-2-2--2-2-2-2--2-2-2-2--2-2-2-2-|-0-0-0-0--0-0-0-0--3-3-3-3--3-3-3-3-|------------------------------------|------------------------------------|
------------------------------------|------------------------------------||------------------------------------|------------------------------------||------------------------------------|------------------------------------||------------------------------------|------------------------------------||-2-2-2-2--2-2-2-2--2-2-2-2--2-2-2-2-|-0-0-0-0--0-0-0-0--3-3-3-3--3-3-3-3-||------------------------------------|------------------------------------||
FILL E
-----||-----||-----||--4--||--2--||-----||
The rest of the song is just variations on fill C. Occasionally a second guitar plays this:
----------|-------||----------|-------||----------|-------||----------|-------||--1---1-2-|--(2)--||--2---2-3-|--(3)--||
For this ending and for verse C and fill C, experiment until you find something that sounds right to you. I could very well be wrong in my transcription. Don't hold it against me!
Tap to rate this tab
 
# A B C D E F G H I J K L M N O P Q R S T U V W X Y Z