Solo – Pigs Cant Fly tab

INTRODUCTION OF HELL

|10-7-0-9-7-0-10-7-0-9-7-0-10-7-0-9-7-0-10-7-0-9-7-0||---------------------------------------------------||---------------------------------------------------||---------------------------------------------------||---------------------------------------------------||---------------------------------------------------|
|8-5-0-7-5-0-8-5-0-7-5-0-8-5-0-7-5-0-8-5-0-7-5-0||-----------------------------------------------||-----------------------------------------------||-----------------------------------------------||-----------------------------------------------||-----------------------------------------------|
|10-7-0-9-7-0-10-7-0-9-7-0-10-7-0-9-7-0-10-7-0-9-7-0||---------------------------------------------------||---------------------------------------------------||---------------------------------------------------||---------------------------------------------------||---------------------------------------------------|
|8-5-0-7-5-0-8-5-0-7-5-0-8-5-0-7-5-0-8-5-0-7-5-0||-----------------------------------------------||-----------------------------------------------||-----------------------------------------------||-----------------------------------------------||-----------------------------------------------|
SCALING THE MOUNTAIN
|----------------------------0-1-0-----------------------------||----------------------0-1-3-------3-1-0-----------------------||------------------0-2-------------------2-0-------------------| X2|------------0-2-3---------------------------3-2-0-------------||------0-2-3---------------------------------------3-2-0-------||0-1-3---------------------------------------------------0-1-5-|
BREAK
|------------------------------------------------------------------------||------------------------------------------------------------------------||------------------------------------------------------------------------||------------------------------------------------------------------------||----2-----5-----3-----7-----2-----5-----7-------------------------------||0-0---0-0---0-0---0-0---0-0---0-0---0-0---0-2/5-5p3p2h5p3p2h5p3p2h5p3p0-|
SCALING THE MOUNTAIN II|----------------------------0-1-0-----------------------------||----------------------0-1-3-------3-1-0-----------------------||------------------0-2-------------------2-0-------------------| X2|------------0-2-3---------------------------3-2-0-------------||------0-2-3---------------------------------------3-2-0-------||0-1-3---------------------------------------------------0-1-5-|
1 BAR BREAK
|-----------------------------------------------||-----------------------------------------------||-----------------------------------------------||-----------------------------------------------||-----------------------------------------------||-----------------------------------------------|
PRE-SOLO
|-----------------------------------------------||-----------------------------------------------||-----------------------------------------------||-----------------------------------------------||-------7-5-7--------7-9-7--------7-5--------7p5||000000-5-3---000000-5-7---000000-5-3-000000----|
|-----------------------------------------------||-----------------------------------------------||-----------------------------------------------||-----------9------------9-------------------7p5||2------7-5-7-2------7-9-7--------7-5-2------7p5||000000-5-3---000000-5-7---000000-5-3-000000----|
PIGS CAN'T FLY SOLO
|-------------------------------------------------7---7-12p0-0-15-14-12-||-------------------------------------------8---8---8-------------------||-------------------------------------9---9---9-------------------------||-------------------------5---5-9-5-9---9-------------------------------||-------------------7---7---7-------------------------------------------||--0--0-3-0-3-7-3-7---7-------------------------------------------------|
|-15-14-12-19-15-----------------------------------------------------||----------------17----17--------------------------------------------||-------------------16----16----16-----------------------------------||----------------------------17----17-14-17-14----14-----------------||----------------------------------------------14----14-10-14-10-----||----------------------------------------------------------------12~-|
|-------------------------------------------12----12-15b17~--||----------------------------------13----13----13------------||-------------------------14----14----14---------------------||-------10----10-14-10-14----14------------------------------||-12~12----12------------------------------------------------||------------------------------------------------------------|
|-18-15----15-------------------------------------------------------------||-------17----17----17----------------------------------------------------||----------------18----18-15-18-15----15----------------------------------||----------------------------------17----17-14-17-14----14----------------||----------------------------------------------------16----16-13-16-13----||----------------------------------------------------------------------15-|
|-17-14----14-------------------------------------------------------------||-------16----16----16----------------------------------------------------||----------------17----17-14-17-14----14----------------------------------||----------------------------------16----16-13-16-13----13----------------||----------------------------------------------------15----15-12-15-12----||----------------------------------------------------------------------14-|
BRIDGE
|-----------------------------------------------||-----------------------------------------------||-----------------------------------------------| X3|-----------------------------------------------||-------7-5-7--------7-9-7--------7-5--------7p5||000000-5-3---000000-5-7---000000-5-3-000000----|
|-17-14----14-------------------------------------------------------------||-------16----16----16----------------------------------------------------||----------------17----17-14-17-14----14----------------------------------||----------------------------------16----16-13-16-13----13----------------||----------------------------------------------------15----15-12-15-12----||----------------------------------------------------------------------14-|
FINALE
|10-7-0-9-7-0-10-7-0-9-7-0-10-7-0-9-7-0-10-7-0-9-7-0||---------------------------------------------------||---------------------------------------------------||---------------------------------------------------||---------------------------------------------------||---------------------------------------------------|
|8-5-0-7-5-0-8-5-0-7-5-0-8-5-0-7-5-0-8-5-0-7-5-0||-----------------------------------------------||-----------------------------------------------||-----------------------------------------------||-----------------------------------------------||-----------------------------------------------|
Please rate this tab:
x1.0