Son By Four – Purest Of Pain tab ver. 2

Tuner :E B G D A e

This Tab is come form www.lickbyneck.com, fingerstyle tab website .
You can get other fingerstyle tab. 

Play it!

|0------3-3-3-1-0-------|-------------3-3-3-1-0------------||----1----0-0-0-0---3-1-|------1------0-0---0-0----3--1----||0------0-0-0-0-0-------|----2---2----0-0---0-0------------||--2--------------------|--2-------2-----------------------||3------2---------------|0---------------------------------||-----------------------|-------------0--------------------|
|------------------------|-----------0-1--0----------------||-----1--------1-1----1--|--------1-3--0----3---1----1-----||-----2-----0--0-0-------|---2-----------------------------||---3---3--2-------2---2-|3-----3--------------------2-----||------------------------|5--------------------------3-----||1----------0------------|-------------3-------------------|
|-----------------------------|------------------------0-0-||1-1-1-1-3-3-------3-3-3-1-1--|--1--1--1-1-3-----3-3-3-----||0-0-0-0-----------0-0--------|--0--0--0---------0-0-------||2-2-2-2-----2---------------0|--2-----2-----2-------------||--------------2--------------|0---------------------------||-----------------------------|----------------0-----------|
|----------------------------|-----------------------------||----------------------------|------1-0-------0--------1---||----2-2-2-0-0------0-0-0---0|-0--------2--------2-0-------||--3-----------3----2-----2--|---3---------------------2---||----------------3-----------|-5-----------------------3---||1---------------------------|-------------3---------------|
|-----------------------------|------------------------0-0-||1-1-1-1-3-3-------3-3-3-1-1--|--1--1--1-1-3-----3-3-3-----||0-0-0-0-----------0-0--------|--0--0--0---------0-0-------||2-2-2-2-----2---------------0|--2-----2-----2-------------||--------------2--------------|0---------------------------||-----------------------------|----------------0-----------|
|----------------------------|--------------------------0-0||----------------------------|---------------------1--3----||----2-2-2-0-0------0-0-0---0|-0----0-----------0----------||--3-----------3----2-----2--|---3----3------0-------------||----------------3-----------|-5---------------------------||1---------------------------|------------3----------------|
|--0------0------3-3-3-1-0------|-----------------------0-0||-----------1----0-0-0-0-----3-1|------1-----------1--3----||------2------0----0-0----------|----2---2---2---0---------||----2--------------------------|--3-------3---------------||0------------------------------|--------------------------||----------------0--------------|1-------------3-----------|
|--0------0------3-3-3-1-0------|----------0---------------0||----------------0-0-0-0-----3-1|------1-----3------3------1||------2------0----0-0----------|----2---0---------0--0----0||----2------2------------------3|--3-------------0-------0--||-------------------------------|--------------------------3||----------------0--------------|1-------------3------------|
|-0-----0-----3-3-3-1-0-------|-------------3-3-3-1-0----------||-1-----------0-0-0-0-0--3-1--|------1------0-0-0-0-0--3-3-----||-0---0---0-----0-0-0-0-------|----2---2----0-0-0-0-0----------||---2-------------------------|--2-------2---------------------||-----------------------------|0-------------------------------||-------------0---------------|-------------0------------------|
|--------------------0----|----------------------0--0----------||--1-----1------1--3---3--|----------------1--3----------------||------2---2----0--0------|--5---2--0--------------------------||----3-------3--2--2------|----3--------0----------------------||-------------------------|5-----------------------------------||1--------------0---------|-----------3------------------------|
|--0------0---3-3-3-1-0-------|-------------3-3-3-1-0----------||-------------0-0-0-0----3-1--|------1------0-0-0-0----3-3-----||-------0-----0-0-0-0---------|----2---2----0-0-0-0------------||----2------2-----------------|--2-------2---------------------||3----------------------------|0-------------------------------||-------------0---------------|-------------0------------------|
|--------------------0----|------------------------------------||--1-----1------1--3---3--|------3--------1-----0--1-----------||------2---2----0--0------|----5-----5-5--0--2-----------------||----3-------3--2--2------|--3-----3---------------------------||-------------------------|5------------------------3----------||1--------------0---------|---------------3--------------------|
|-------------3-3-3-1-0----|--------------0--------------------||-----1-------0-0-0-----3-3|--1-------1-3-1--3-1---------------||---0---0---0-0-0-0--------|------0-2--------0-----0---2-------||-2-------2----------------|----2----------------------3-------||-------------2------------|0----------------------------------||--------------------------|--------------3------------1-------|
|------------------------|----------0--1--0---------------------||-1-1---1------1-1-------|------1-3----0-----3------------------||---------2--0-------0---|--2---------0-------------------------||-----3------2-----2---2-|3---3---------------------------------||------------------------|5-------------------------------------||------------0-----------|------------3-------------------------|
|-------------||1----1-------||-------------| Fine!|-----2-------||-----3-------||-------------|
Please rate this tab:
x1.0