Sonic Youth - Chapel Hill tab version 2

Artist: Sonic Youth
Song: Chapel Hill
Album: Dirty
Tuning: EGDGBE (standard with drop G on A)

Tabbed By: Indie Nation
     
E||--------------------|-------------------|--------------------|B||--------------------|-------------------|--------------------|G||--------4s--2--0----|-----5s----4--2----|--------4s--2--0----|D||-----0--------------|-------------------|-----0--------------|G||--0-----------------|--2----------------|--0-----------------|E||--------------------|-------------------|--------------------|
-------------------|--------------------|-------------------|-------------------|--------------------|-------------------|-----5s----4--2----|--------4s--2--0----|-----5s----4--2----|-------------------|-----0--------------|-------------------|--2----------------|--0-----------------|--2----------------|-------------------|--------------------|-------------------|
--------------------|-------------------|-------------------|--------------------|-------------------|-------------------|--------4s--2--0----|-----5s----4--2----|--4s--5----7----9--|-----0--------------|-------------------|-------------------|--0-----------------|--2----------------|--4s--5----7----9--|--------------------|-------------------|-------------------|
-------------------|-------------------|------------------|-------------------|-------------------|-------------------|------------------|-------------------|-(9)-11---11---12s-|--14---11---11s-12-|-(12)-------------|-------------------|-------------------|-------------------|------9---9----7--|-(7)---------------|-(9)-11---11---12s-|--14---11---11s-12-|-(12)-------------|-----10---9--9--9--|-------------------|-------------------|------------------|-------------------|
---------------------|---------------------|-------------------|---------------------|---------------------|-------------------|--9--9--7s--9----11--|-(11)-11----11---12--|-(12)-11-------11--|---------------------|---------------------|-------------------|--9--9--7s--9----11--|-(11)-11----11---12--|-(12)-11-------11--|---------------------|---------------------|-------------------|
---------------------|-----------------------|------------------------|---------------------|-----------------------|------------------------|--11s--12------14----|--14b------14--14--14--|-------4----x--x--x--5--|---------------------|-----------------------|--4----4----x--x--x--5--|--11s--12------14----|--14b------14--14--14--|--4----4----x--x--x--5--|---------------------|-----------------------|------------------------|
------------------------|------------------------|------------------------|------------------------|------------------------|------------------------|-(5)-5--5--5--7----5----|-------4----x--x--x--5--|-(5)-5--5--5--7----5----|-(5)-5--5--5--7----5----|--4----4----x--x--x--5--|-(5)-5--5--5--7----5----|-(5)-5--5--5--7----5----|--4----4----x--x--x--5--|-(5)-5--5--5--7----5----|------------------------|------------------------|------------------------|
------------------------|------------------------|------------------------|------------------------|------------------------|------------------------|-------4----x--x--x--5--|-(5)-5--5--5--7----5----|-------4----x--x--x--5--|--4----4----x--x--x--5--|-(5)-5--5--5--7----5----|--4----4----x--x--x--5--|--4----4----x--x--x--5--|-(5)-5--5--5--7----5----|--4----4----x--x--x--5--|------------------------|------------------------|------------------------|
------------------------|------------------------|------------------------|------------------------|------------------------|------------------------|-(5)-5--5--5--7----5----|-------4----x--x--x--5--|-(5)-5--5--5--7----5----|-(5)-5--5--5--7----5----|--4----4----x--x--x--5--|-(5)-5--5--5--7----5----|-(5)-5--5--5--7----5----|--4----4----x--x--x--5--|-(5)-5--5--5--7----5----|------------------------|------------------------|------------------------|
------------------------|------------------------|------------------------|------------------------|------------------------|------------------------|-------4----x--x--x--5--|-(5)-5--5--5--7----5----|-------4----x--x--x--5--|--4----4----x--x--x--5--|-(5)-5--5--5--7----5----|--4----4----x--x--x--5--|--4----4----x--x--x--5--|-(5)-5--5--5--7----5----|--4----4----x--x--x--5--|------------------------|------------------------|------------------------|
------------------------|------------------------|------------------------|------------------------|------------------------|------------------------|-(5)-5--5--5--7----5----|-------4----x--x--x--5--|-(5)-5--5--5--7----5----|-(5)-5--5--5--7----5----|--4----4----x--x--x--5--|-(5)-5--5--5--7----5----|-(5)-5--5--5--7----5----|--4----4----x--x--x--5--|-(5)-5--5--5--7----5----|------------------------|------------------------|------------------------|
-------------------|---------------------------|-------------------------|-------------------|---------------------------|-------------------------|--0----------------|--------2--------3---------|--2--------2----5--5-----|--0----------------|-----2--------3------------|-----2--4-------5--5-----|--0----------------|--2--------3--------3S--2--|----------------5--5-----|-------------------|---------------------------|-------------------------|
----------------------|----------------------------|-------------------|----------------------|----------------------------|-------------------|--3--------0----0-----|-----0--2S--3--3--3--3-3-3--|--2----------------|--3--------0-------0--|--2-----2S--3--3--3--3-3-3--|--2----------------|--3--------0----------|--------2S--3--3--3--3-3-3--|--2----------------|----------------------|----------------------------|-------------------|
-----------------------|-------------------|------------------------|-----------------------|-------------------|------------------------|--5--5-----3-----------|-(3)---------------|-------4----x--x--x--5--|--5--5-----3-----------|-(3)---------------|--4----4----x--x--x--5--|--5--5-----3-----------|-(3)---------------|--4----4----x--x--x--5--|-----------------------|-------------------|------------------------|
------------------------|------------------------|------------------------|------------------------|------------------------|------------------------|-----5--5--5--7----5----|-------4----x--x--x--5--|-----5--5--5--7----5----|-----5--5--5--7----5----|--4----4----x--x--x--5--|-----5--5--5--7----5----|-----5--5--5--7----5----|--4----4----x--x--x--5--|-----5--5--5--7----5----|------------------------|------------------------|------------------------|
------------------------|------------------------|------------------------|------------------------|------------------------|------------------------|-------4----x--x--x--5--|-----5--5--5--7----5----|-------4----x--x--x--5--|--4----4----x--x--x--5--|-----5--5--5--7----5----|--4----4----x--x--x--5--|--4----4----x--x--x--5--|-----5--5--5--7----5----|--4----4----x--x--x--5--|------------------------|------------------------|------------------------|
------------------------|------------------------|------------------------|------------------------|------------------------|------------------------|-----5--5--5--7----5----|-------4----x--x--x--5--|-----5--5--5--7----5----|-----5--5--5--7----5----|--4----4----x--x--x--5--|-----5--5--5--7----5----|-----5--5--5--7----5----|--4----4----x--x--x--5--|-----5--5--5--7----5----|------------------------|------------------------|------------------------|
------------------------|------------------------|------------------------|------------------------|------------------------|------------------------|-------4----x--x--x--5--|-----5--5--5--7----5----|-------4----x--x--x--5--|--4----4----x--x--x--5--|-----5--5--5--7----5----|--4----4----x--x--x--5--|--4----4----x--x--x--5--|-----5--5--5--7----5----|--4----4----x--x--x--5--|------------------------|------------------------|------------------------|
------------------------|------------------------|------------------------|------------------------|------------------------|------------------------|-----5--5--5--7----5----|-------4----x--x--x--5--|-----5--5--5--7----5----|-----5--5--5--7----5----|--4----4----x--x--x--5--|-----5--5--5--7----5----|-----5--5--5--7----5----|--4----4----x--x--x--5--|-----5--5--5--7----5----|------------------------|------------------------|------------------------|
-------------------|---------------------------|-------------------------|-------------------|---------------------------|-------------------------|--0----------------|--------2--------3---------|--2--------2----5--5-----|--0----------------|-----2--------3------------|-----2--4-------5--5-----|--0----------------|--2--------3--------3S--2--|----------------5--5-----|-------------------|---------------------------|-------------------------|
----------------------|----------------------------|-------------------|----------------------|----------------------------|-------------------|--3--------0----0-----|-----0--2S--3--3--3--3-3-3--|--2----------------|--3--------0-------0--|--2-----2S--3--3--3--3-3-3--|--2----------------|--3--------0----------|--------2S--3--3--3--3-3-3--|--2----------------|----------------------|----------------------------|-------------------|
-----------------------|-------------------|-------------------------|-----------------------|-------------------|-------------------------|--5--5-----3-----------|-(3)---------------|--------0--------0-------|--5--5-----3-----------|-(3)---------------|-----0-----0--2-------0--|--5--5-----3-----------|-(3)---------------|--0----------------------|-----------------------|-------------------|-------------------------|
-------------------------|-------------------------|-------------------------|-------------------------|-------------------------|-------------------------|--------0--------0-------|--------0--------0-------|--------0--------0-------|-----0-----0--2-------0--|-----0-----0--2-------0--|-----0-----0--2-------0--|--0----------------------|--0----------------------|--0----------------------|-------------------------|-------------------------|-------------------------|
-------------------|------------------|-------------------|------------------|-------------------|------------------|-------------------|------------------|--------4--2--0----|-----5----4--2----|--------4--2--0----|-----5----4--2----|-----0-------------|------------------|-----0-------------|------------------|--0----------------|--2---------------|--0----------------|--2---------------|-------------------|------------------|-------------------|------------------|
-------------------|------------------|-------------------|------------------|-------------------|------------------|-------------------|------------------|--------4--2--0----|-----5----4--2----|--------4--2--0----|-----5----4--2----|-----0-------------|------------------|-----0-------------|------------------|--0----------------|--2---------------|--0----------------|--2---------------|-------------------|------------------|-------------------|------------------|
----------------------|---------------------------|----------------------|----------------------|---------------------------|----------------------|--4----4--------------|---------------------------|--4----4--------------|--4----4--------------|---------------------------|--4----4--------------|--4----4---12--11--10-|-----10-10-10-10--11--12---|--4----4---12--11--10-|----------------------|---------------------------|----------------------|
---------------------------|----------------------|---------------------------|---------------------------|----------------------|---------------------------|---------------------------|--4----4--------------|---------------------------|---------------------------|--4----4--------------|---------------------------|-----10-10-10-10--11--12---|--4----4---12--11--10-|-----10-10-10-10--11--12---|---------------------------|----------------------|---------------------------|
----------------------|---------------------------|--------------------|----------------------|---------------------------|--------------------|--4----4--------------|---------------------------|--4----4------------|--4----4--------------|---------------------------|--4----4----12--11--|--4----4---12--11--10-|-----10-10-10-10--11--12---|--4----4----12--11--|----------------------|---------------------------|--------------------|
--------------------------------|--------------------|--------------------------------|--------------------|--------------------------------|--4----4------------|--10----10-10-10-10-10-10-------|--4----4----12--11--|--10----10-10-10-10-10-10-------|--4----4----12--11--|--------------------------------|--------------------|
--------------------------------|--------------------|--------------------------------|--------------------|--------------------------------|--4----4------------|--10----10-10-10-10-10-10-------|--4----4----12--11--|--10----10-10-10-10-10-10-------|--4----4----12--11--|--------------------------------|--------------------|
--------------------------------|--------------------|--------------------------------|--------------------|--------------------------------|--4----4------------|--10----10-10-10-10-10-10-------|--4----4----12--11--|--10----10-10-10-10-10-10-------|--4----4----12--11--|--------------------------------|--------------------|
--------------------------------|---------------------------|--------------------------------|---------------------------|--------------------------------|--2s4---4---4---2-4--7--6--|--10----10-10-10-10-10-10-------|---------------------------|--10----10-10-10-10-10-10-------|--2s4---4---4---2-4--7--6--|--------------------------------|---------------------------|
--------------------------------|---------------------------|--------------------------------|---------------------------|--5--5-5-5-7-5-3--3-3-3-3-3-3-3-|--2s4---4---4---2-4--7--6--|--------------------------------|---------------------------|--5--5-5-5-7-5-3--3-3-3-3-3-3-3-|--2s4---4---4---2-4--7--6--|--------------------------------|---------------------------|
--------------------------------|---------------------------|--------------------------------|---------------------------|--5--5-5-5-7-5-3--3-3-3-3-3-3-3-|--2s4---4---4---2-4--7--6--|--------------------------------|---------------------------|--5--5-5-5-7-5-3--3-3-3-3-3-3-3-|--2s4---4---4---2-4--7--6--|--------------------------------|---------------------------|
--------------------------------|---------------------------|--------------------------------|---------------------------|--5--5-5-5-7-5-3--3-3-3-3-3-3-3-|--2s4---4---4---2-4--7--6--|--------------------------------|---------------------------|--5--5-5-5-7-5-3--3-3-3-3-3-3-3-|--2s4---4---4---2-4--7--6--|--------------------------------|---------------------------|
--------------------------------|-------------------------------|--------------------------------|-------------------------------|--5--5-5-5-7-5-3--3-3-3-3-3-3-3-|--2s4---2s4---2s4---3-4--7--6--|--------------------------------|--2s4---2s4---2s4---3-4--7--6--|--5--5-5-5-7-5-3--3-3-3-3-3-3-3-|--2s4---2s4---2s4---3-4--7--6--|--------------------------------|-------------------------------|
--------------------------------|-------------------------------|--------------------------------|-------------------------------|--5--5-5-5-7-5-3--3-3-3-3-3-3-3-|--2s4---2s4---2s4---3-4--7--6--|--5--5-5-5-7-5-3--3-3-3-3-3-3-3-|--2s4---2s4---2s4---3-4--7--6--|--5--5-5-5-7-5-3--3-3-3-3-3-3-3-|--2s4---2s4---2s4---3-4--7--6--|--------------------------------|-------------------------------|
--------------------------------|-------------------------------|--------------------------------|-------------------------------|--5--5-5-5-7-5-3--3-3-3-3-3-3-3-|--2s4---2s4---2s4---3-4--7--6--|--5--5-5-5-7-5-3--3-3-3-3-3-3-3-|--2s4---2s4---2s4---3-4--7--6--|--5--5-5-5-7-5-3--3-3-3-3-3-3-3-|--2s4---2s4---2s4---3-4--7--6--|--------------------------------|-------------------------------|
--------------------------------|-------------------------------|--------------------------------|-------------------------------|--5--5-5-5-7-5-3--3-3-3-3-3-3-3-|--2s4---2s4---2s4---3-4--7--6--|--5--5-5-5-7-5-3--3-3-3-3-3-3-3-|--2s4---2s4---2s4---3-4--7--6--|--5--5-5-5-7-5-3--3-3-3-3-3-3-3-|--2s4---2s4---2s4---3-4--7--6--|--------------------------------|-------------------------------|
--------------------------------|-------------------------------|--------------------------------|-------------------------------|--5--5-5-5-7-5-3--3-3-3-3-3-3-3-|--2s4---2s4---2s4---3-4--7--6--|--5--5-5-5-7-5-3--3-3-3-3-3-3-3-|--2s4---2s4---2s4---3-4--7--6--|--5--5-5-5-7-5-3--3-3-3-3-3-3-3-|--2s4---2s4---2s4---3-4--7--6--|--------------------------------|-------------------------------|
--------------------------------|-------------------------------|--------------------------------|-------------------------------|--5--5-5-5-7-5-3--3-3-3-3-3-3-3-|--2s4---2s4---2s4---3-4--7--6--|--5--5-5-5-7-5-3--3-3-3-3-3-3-3-|--2s4---2s4---2s4---3-4--7--6--|--5--5-5-5-7-5-3--3-3-3-3-3-3-3-|--2s4---2s4---2s4---3-4--7--6--|--------------------------------|-------------------------------|
--------------------------------|-------------------------------|--------------------------------|-------------------------------|--5--5-5-5-7-5-3--3-3-3-3-3-3-3-|--2s4---2s4---2s4---3-4--7--6--|--5--5-5-5-7-5-3--3-3-3-3-3-3-3-|--2s4---2s4---2s4---3-4--7--6--|--5--5-5-5-7-5-3--3-3-3-3-3-3-3-|--2s4---2s4---2s4---3-4--7--6--|--------------------------------|-------------------------------|
--------------------------------|----------------------------------|--------------------------------|----------------------------------|--5--5-5-5-7-5-3--3-3-3-3-3-3-3-|--3-3-3-3-3-3-3-3-3-3-3-3-3-3-3-3-|--5--5-5-5-7-5-3--3-3-3-3-3-3-3-|--3-3-3-3-3-3-3-3-3-3-3-3-3-3-3-3-|--5--5-5-5-7-5-3--3-3-3-3-3-3-3-|--3-3-3-3-3-3-3-3-3-3-3-3-3-3-3-3-|--------------------------------|----------------------------------|
----------------------------------|--------------------------|----------------------------------|--------------------------|--3-3-3-3-3-3-3-3-3-3-3-3-3-3-3-3-|--------------------------|--3-3-3-3-3-3-3-3-3-3-3-3-3-3-3-3-|--------------------------|--3-3-3-3-3-3-3-3-3-3-3-3-3-3-3-3-|-----3-----3-----3-----3--|----------------------------------|--0-----0-----0-----0-----|
--------------------------|--------------------------|--------------------------|--------------------------|--------------------------|--------------------------|--------------------------|--------------------------|-----3-----3-----3-----3--|-----3-----3-----3-----3--|--0-----0-----0-----0-----|--0-----0-----0-----0-----|
--------------------------|------------------------|------------------------|--------------------------|------------------------|------------------------|--------------------------|-------4----x--x--x--5--|-----5--5--5--7----5----|--------------------------|--4----4----x--x--x--5--|-----5--5--5--7----5----|-----3-----3-----3-----3--|--4----4----x--x--x--5--|-----5--5--5--7----5----|--0-----0-----0-----0-----|------------------------|------------------------|
------------------------|------------------------|------------------------|------------------------|------------------------|------------------------|-------4----x--x--x--5--|-----5--5--5--7----5----|-------4----x--x--x--5--|--4----4----x--x--x--5--|-----5--5--5--7----5----|--4----4----x--x--x--5--|--4----4----x--x--x--5--|-----5--5--5--7----5----|--4----4----x--x--x--5--|------------------------|------------------------|------------------------|
------------------------|------------------------|------------------------|------------------------|------------------------|------------------------|-----5--5--5--7----5----|-------4----x--x--x--5--|-----5--5--5--7----5----|-----5--5--5--7----5----|--4----4----x--x--x--5--|-----5--5--5--7----5----|-----5--5--5--7----5----|--4----4----x--x--x--5--|-----5--5--5--7----5----|------------------------|------------------------|------------------------|
------------------------|------------------------|------------------------|------------------------|------------------------|------------------------|-------4----x--x--x--5--|-----5--5--5--7----5----|-------4----x--x--x--5--|--4----4----x--x--x--5--|-----5--5--5--7----5----|--4----4----x--x--x--5--|--4----4----x--x--x--5--|-----5--5--5--7----5----|--4----4----x--x--x--5--|------------------------|------------------------|------------------------|
------------------------|------------------------|------------------------|------------------------|------------------------|------------------------|-----5--5--5--7----5----|-------4----x--x--x--5--|-----5--5--5--7----5----|-----5--5--5--7----5----|--4----4----x--x--x--5--|-----5--5--5--7----5----|-----5--5--5--7----5----|--4----4----x--x--x--5--|-----5--5--5--7----5----|------------------------|------------------------|------------------------|
------------------------|------------------------|------------------------|------------------------|------------------------|------------------------|-------4----x--x--x--5--|-----5--5--5--7----5----|-------4----x--x--x--5--|--4----4----x--x--x--5--|-----5--5--5--7----5----|--4----4----x--x--x--5--|--4----4----x--x--x--5--|-----5--5--5--7----5----|--4----4----x--x--x--5--|------------------------|------------------------|------------------------|
------------------------|------------------------|------------------------|------------------------|------------------------|------------------------|-----5--5--5--7----5----|-------4----x--x--x--5--|-----5--5--5--7----5----|-----5--5--5--7----5----|--4----4----x--x--x--5--|-----5--5--5--7----5----|-----5--5--5--7----5----|--4----4----x--x--x--5--|-----5--5--5--7----5----|------------------------|------------------------|------------------------|
------------------------|------------------------|------------------------|------------------------|------------------------|------------------------|-------4----x--x--x--5--|-----5--5--5--7----5----|-------4----x--x--x--5--|--4----4----x--x--x--5--|-----5--5--5--7----5----|--4----4----x--x--x--5--|--4----4----x--x--x--5--|-----5--5--5--7----5----|--4----4----x--x--x--5--|------------------------|------------------------|------------------------|
------------------------|-------------------|---------------------------|------------------------|-------------------|---------------------------|-----5--5--5--7----5----|--0----------------|--------2--------3---------|-----5--5--5--7----5----|--0----------------|-----2--------3------------|-----5--5--5--7----5----|--0----------------|--2--------3--------3S--2--|------------------------|-------------------|---------------------------|
-------------------------|----------------------|----------------------------|-------------------------|----------------------|----------------------------|--2--------2----5--5-----|--3--------0----0-----|-----0--2S--3--3--3--3-3-3--|-----2--4-------5--5-----|--3--------0-------0--|--2-----2S--3--3--3--3-3-3--|----------------5--5-----|--3--------0----------|--------2S--3--3--3--3-3-3--|-------------------------|----------------------|----------------------------|
-------------------|-----------------------||-------------------|-----------------------||--2----------------|--5--5-----3-----------||--2----------------|--5--5-----3-----------||--2----------------|--5--5-----3-----------||-------------------|-----------------------||
Tap to rate this tab
 
# A B C D E F G H I J K L M N O P Q R S T U V W X Y Z