Soulfly – Frontlines tab

Tuning: EADGBE , Max found back to the Standard ;-)

~ = light vibrato, . = Palm Mute, h = hammer on, p = pull off, ()=don't have to play if 
don't want to


Intro:

|------------------------|------------------------||------------------------|------------------------||------------------------|------------------------||-----5h6p5---8(h9)h11p8-|-----5h6p5---8h(9h)11p8-||------------------------|------------------------| x4|-0-0--------------------|-0-0--------------------| . . . .
Verse Marc Rizzo:
|--------------------------------------------||--------------------------------------------||--------------------------------------------||----6-6--6-8h(9h)11p8-----5-5--5-5h(6h)8p6--||--------------------------------------------| x8|(0)-------------------(0)-------------------|
Verse Max Cavalera:
|--------------------------------------------||--------------------------------------------||--------------------------------------------||--------------------------------------------||--------------------------------------------| x8|0-0-0-0-0-0-0-0-0-0-0-0-0-0-0-0-0-0-0-0-0-0-|
Intro x4 + Verse Max Cavalera Verse x6 Pre Chorus:
|-----------------|-----------------||-----------------|-----------------||-----------------|-----------------||-----------------|-----------------||-4-4-5-8-4-4-5-8-|-4-4-5-8-9-9-5-8-| x4|-2-2-3-6-2-2-3-6-|-2-2-3-6-7-7-3-6-|
Chorus:
|-----------------|-----------------||-----------------|-----------------||-----------------|-----------------||-----------------|-----------------||-4---5-8-4---5-8-|-4---5-8-9---5-8-| x4|-2---3-6-2---3-6-|-2---3-6-7---3-6-|
Intro x4 + Verse Max Cavalera Verse x6 Pre Solo:
|--------------------------------------------||-----2--3----2--3--6----3--6--7----6--7--9--||--4-----------------------------------------||--------------------------------------------||--------------------------------------------| x1|--------------------------------------------|
Solo(very fast):
|------------------||---151515171820---||------------------||------------------||------------------| x6|------------------|
|------------------||---202019171514---||------------------||------------------||------------------| x1|------------------| Slide down a bit from 14
|---------------------12-15-15-15-17s14--15-18-18-18-20s17---------------15--||--12-15-15-15-17s14-----------------------------------------201917151415----||----------------------------------------------------------------------------||----------------------------------------------------------------------------||----------------------------------------------------------------------------||----------------------------------------------------------------------------|x1
|----------------------------------21-22b-||-----------------------------------------||-----------------------------------------||part i can't hear, Improvise! ;)---------||-----------------------------------------| x1|-----------------------------------------|(bend the 22 a few times up and down, better is a Tremoloarm)
Bridge:
|-------------------||-------------------||-----5p2-----------||-------------------||-2-2-------2-2-----| x4|-0-0-------0-0-----| . . .
|----------------| ------- \|----------------| ------ \|---------------------------------------- \|----------------| ---- \|-2-2-3p2---2-2-------------------------- \ x3|-0-0-------0-0--| -- \ . . . . >>>> Marc Rizzo x4 then distorted outro solo, Cavalera continues while solo
|-------------------------------------- \ /|-------------------------------------- \|-------------------------------------- \|-------------------------------------- \ /|-2-2-2-2-22-2-2-2-2------------------- \ x1|-0-0-0-0-00-0-0-0-0------------------- \ / . . . . .. . . . .
Outro solo distorted:
|-7-8-7~-----------8-10-8~--7-8-7~---||---------5-7-5~---------------------||------------------------------------||------------------------------------||------------------------------------||------------------------------------|
|-7-8-7~-----------8-10-8~--10-12-10~---||---------5-7-5~------------------------||---------------------------------------||---------------------------------------||---------------------------------------||---------------------------------------| x2
Outro solo clean:
|-7-8-7------------8-10-8---7-8-7----7h8p7||---------5-7-5---------------------------||-----------------------------------------||-----------------------------------------||(7)--------------------------------------||-----------------(10)--------------------|
|-7-8-7------------8-10-8---10-12-10----10h12p10||---------5-7-5---------------------------------||-----------------------------------------------||(5)--------------(7)---------------------------||-----------------------------------------------||-----------------------------------------------| x6the hammer-ons and pull offs in the clean outro solo are silent!
tabbed by Sadonupsi (dummschwaetzerpolizei@arcor.de)
Please rate this tab:
x1.0