Sparks The Rescue – Pine Tree State tab ver. 2

Pine Tree State
Sparks The Rescue


Intro

Gtr 1e|--------------------------------------------------------------| B|--------------------------------------------------------------|G|---------9-6-------9-6----6-------------9-6-------9-6----6----|D|-2/7-7-7------7-7-7-----7---9-7-----7-7------7-7-7-----7---9-7|A|--------------------------------------------------------------|E|--------------------------------------------------------------|
|------------------------------------------------| |------------------------------------------------||---9-9----9-9----6---------9-9----9-9----6------||-7----9--9---9-----9-7---7----9--9---9-----9-7--||------------------------------------------------||------------------------------------------------|
Gtr 2 e|---------------------------|B|---------------------------|G|--------7------------------|D|7-------7--x32-------------|A|7--x32--5------------------| E|5--------------------------|
Verse 1
Palm mute|---------------------------||---------------------------||--------7------------------||7-------7--x32-------------| x2|7--x32--5------------------| |5--------------------------|
Pre-Chorus
|----------------------------------------------------------||----------------------------------------------------------||--------7-------9-------10-10-10-/-9--9-9-/-7-------------||9-------7--x16--9--x8---10-10-10-/-9--9-9-/-7-x16---------||9--x16--5-------7-------9--9--9--/-7--7-7-/-5-------------| |7---------------------------------------------------------|
Chorus 1
|------------------------------------||------------------------------------||--------7-------10-----9------7-----||7-------7--x16--10--x8-9--x8--7--x16||7--x16--5-------9------7------5-----| |5-----------------------------------|
Verse 2
Palm mute first time only :D|---------------------------||---------------------------||--------7------------------||7-------7--x32-------------| x2|7--x32--5------------------| |5--------------------------|
Pre-Chorus
|----------------------------------------------------------||----------------------------------------------------------||--------7-------9-------10-10-10-/-9--9-9-/-7-------------||9-------7--x16--9--x8---10-10-10-/-9--9-9-/-7-x16---------||9--x16--5-------7-------9--9--9--/-7--7-7-/-5-------------| |7---------------------------------------------------------|
Chorus 2
|-------------------------------------||-------------------------------------||--------7-------10------9------7-----||7-------7--x16--10--x8--9--x8--7--x16||7--x16--5-------9-------7------5-----| |5------------------------------------|
|-----------------------------------------||--------------------------------------6--||--------7-------10------9------7------7--||7-------7--x16--10--x8--9--x8--7--x8--7--||7--x16--5-------9-------7------5------5--| |5----------------------------------------|
Bridge
|-------------------------------------||-------------------------------------||--------7-------10----9----7---------||9-------7--x16--10-x8-9-x8-7-x16-----||9--x16--5-------9-----7----5---------| |7------------------------------------|
|-------------------------------------------------------------------||-------------------------------------------------------------------||--------7-------10-10-/-9--9-9-/-7---------10-10-/-9--9-9-/-7------||9-------7--x16--10-10-/-9--9-9-/-7---------10-10-/-9--9-9-/-7--hold||9--x16--5-------9--9--/-7--7-7-/-5---------9--9--/-7--7-7-/-5------| |7------------------------------------------------------------------|
Break
Gtr 1|----------------------------------| |----------------------------------||---------9-6-------9-6----6-------||---7-7-7------7-7-7-----7---9-7---||----------------------------------||----------------------------------|
|----------------------------------------------------------------| |----------------------------------------------------------------| |---------9-6-------9-6---6--6-6-6---------6---------------------||---7-7-7------7-7-7-----7-7------9-7--9-9----9-7--9p7-----------||----------------------------------------------------------------||----------------------------------------------------------------|
Gtr 2 |-------------------------------||-------------------------------||--------7------10----9----7----||7-------7------10----9----7----||7-------5------9-----7----5----| |5------------------------------|
Chorus
Play really hard and jump around! :D|-xx-xx--|--------------------------------------||-xx-xx--|--------------------------------------||-xx-xx--|---------7-------10------9------7-----||-xx-xx--|-7-------7--x16--10--x8--9--x8--7--x16| x2|-xx-xx--|-7--x16--5-------9-------7------5-----| |-xx-xx--|-5------------------------------------|
|----------------------||----------------------||-10------9------7-----||-10--x8--9--x8--7--x16||-9-------7------5-----| |----------------------|
Outro
Gtr 1|--------------------------------------------------------------| |--------------------------------------------------------------||---------9-6-------9-6----6-------------9-6-------9-6----6----||---7-7-7------7-7-7-----7---9-7---7-7-7------7-7-7-----7---9-7||--------------------------------------------------------------||--------------------------------------------------------------|
|-------------------------------------------------| |-------------------------------------------------||---9-9----9-9----6---------9-9----9-9------------||-7----9--9---9-----9-7---7----9--9---9--hold-note||-------------------------------------------------||-------------------------------------------------|
Gtr 2 Palm mute|-----------------------||-----------------------||--------7--------------||7-------7--x16---------||7--x32--5--------------| |5----------------------|
It goes a little something like that :P
Please rate this tab:
x1.0