Spawn Of Possession – Swarm Of The Formless tab

TABULATURE LEGEND
 " - tremolo             h - hammer on
 ~ - vibrato             \ - slide down
 p - pull off            / - slide down
 tr - trill              ^ - pinch harmonics
 = - sustained note      b - bend string
 p.m. - palm muting      t - tapping

Tuning:
guitar 1 (Bryssling) : tuned in B (B-E-A-D-F#-B)
guitar 2 (Karlsson)  : regular 7 strings (B-E-A-D-G-B-E)



[Intro] [Riff 1a (x2)]|---------||-------------------------------|----------------------------|||---------||o------------------------------|---------------------------o|||---------||-------------------------------|----------------------------|||-4---3---||--77777777-------5-6~--------9-|-77777777-------7----6--10--|||-4-5-3-4-||o----------7-6-4--------6------|----------7-6-4----8-------o|||---5---4-||--------------------------8~---|----------------------------||
| . . . . | . . . | . . . ||---------||-------------------------------|----------------------------|||---------||-------------------------------|----------------------------|||---------||o------------------------------|---------------------------o|||---------||-------------------------------|----------------------------|||-4---3---||o-44444444-------223333------6-|-44444444-------4----3--7--o|||-4-5-3-4-||-------------------------------|-------------------5--------|||---5---4-||-----------5-4-2--------4-1~---|----------5-4-2-------------|| . . . . . . . . . .
[Riff 1b (x2)]||--------------------------------|---------------------------^----||||o-------------------------------|---------------------------10~-o||||--------------------------------|----------------11"....-10------||||--7"...-10-10-10-6"...-10-10-10-|-7"...-10-10-10-----------------||||o-------------------------------|--------------------------------||||--------------------------------|--------------------------------||
| . . . . . . | . . . |||--------------------------------|--------------------------------||||--------------------------------|--------------------------------||||o-------------------------------|-------------------------------o||||--------------------------------|--------------------------------||||o-44444444-------223333------6--|-44444444-------4----3--7------o||||--------------------------------|-------------------5------------||||-----------5-4-2--------4-1~----|----------5-4-2-----------------|| . . . . . .
[Riff 1c (x2)]||-------------------------------|----------------------------||||o------------------------------|---------------------------o||||-------------------------------|----------------------------||||--44444444-------223333------6-|-44444444-------7----6--10--||||o-----------------------4------|----------7-6-4----8-------o||||-----------5-4-2----------1~---|----------------------------||
| . . . | . . . |||-------------------------------|----------------------------||||-------------------------------|----------------------------||||o------------------------------|---------------------------o||||-------------------------------|----------------------------||||o-44444444-------223333------6-|-44444444-------4----3--7--o||||-------------------------------|-------------------5--------||||-----------5-4-2--------4-1~---|----------5-4-2-------------|| . . . . . .
[Riff 2a]|--------------------------------------------|-|--------------------------------------------|-|--------------------------------------------|-|-----------------------------------------4--|-|-------------2h3p2-1h2p1-----------------2--|-|-3h4p3-3h4p3-------------3h4p3-3h4p3-4-3-2--|-
| . . ||--------------------------------------------|-|--------------------------------------------|-|--------------------------------------------|-|--------------------------------------------|-|-----------------------------------------4--|-|-------------2h3p2-1h2p1-----------------2--|-|-3h4p3-3h4p3-------------3h4p3-3h4p3-4-3-2--|- . .
-|-------------------------------------|--|-------------------------------------|--|-------------------------------------|--|-------------------------------3-----|--|-------------2h3p2-1h2p1-4-----3-2-3-|--|-3h4p3-3h4p3-------------4-3-4-------|-
| . . . . |-|-------------------------------------|--|-------------------------------------|--|-------------------------------------|--|-------------------------------------|--|-------------------------------3-----|--|-------------2h3p2-1h2p1-4-----3-2-3-|--|-3h4p3-3h4p3-------------4-3-4-------|- . . . .
-|--------------------------------------------|--|--------------------------------------------|--|--------------------------------------------|--|-----------------------------------------4--|--|-------------2h3p2-1h2p1-----------------2--|--|-3h4p3-3h4p3-------------3h4p3-3h4p3-4-3-2--|-
| . . |-|--------------------------------------------|--|--------------------------------------------|--|--------------------------------------------|--|--------------------------------------------|--|-----------------------------------------4--|--|-------------2h3p2-1h2p1-----------------2--|--|-3h4p3-3h4p3-------------3h4p3-3h4p3-4-3-2--|- . .
-|--------------------------------------|-|--------------------------------------|-|--------------------------------------|-|-----------------------------4-----5--|-|-------------2h3p2-1h2p1-----2-----3--|-|-3h4p3-3h4p3-------------4-3---5-4----|
| |-|--------------------------------------|-|--------------------------------------|-|--------------------------------------|-|--------------------------------------|-|-----------------------------4-----5--|-|-------------2h3p2-1h2p1-----2-----3--|-|-3h4p3-3h4p3-------------4-3---5-4----|
[Riff 2b]|--------------------------------------------|-|--------------------------------------------|-|--------------------------------------------|-|-----------------------------------------4--|-|-------------6h7p6-5h6p5-----------------2--|-|-3h4p3-3h4p3-------------3h4p3-3h4p3-4-3-2--|-
| . . ||--------------------------------------------|-|--------------------------------------------|-|--------------------------------------------|-|--------------------------------------------|-|-----------------------------------------4--|-|-------------2h3p2-1h2p1-----------------2--|-|-3h4p3-3h4p3-------------3h4p3-3h4p3-4-3-2--|- . .
-|-------------------------------------|--|-------------------------------------|--|-------------------------------------|--|-------------------------------3-----|--|-------------6h7p6-5h6p5-4-----3-2-3-|--|-3h4p3-3h4p3-------------4-3-4-------|-
| . . . . |-|-------------------------------------|--|-------------------------------------|--|-------------------------------------|--|-------------------------------------|--|-------------------------------3-----|--|-------------2h3p2-1h2p1-4-----3-2-3-|--|-3h4p3-3h4p3-------------4-3-4-------|- . . . .
-|--------------------------------------------|--|--------------------------------------------|--|--------------------------------------------|--|-----------------------------------------4--|--|-------------6h7p6-5h6p5-----------------2--|--|-3h4p3-3h4p3-------------3h4p3-3h4p3-4-3-2--|-
| . . |-|--------------------------------------------|--|--------------------------------------------|--|--------------------------------------------|--|--------------------------------------------|--|-----------------------------------------4--|--|-------------2h3p2-1h2p1-----------------2--|--|-3h4p3-3h4p3-------------3h4p3-3h4p3-4-3-2--|- . .
-|-------------------------------------|-|-------------------------------------|-|-------------------------------------|-|-----------------------------4-----5-|-|-------------6h7p6-5h6p5-----2-----3-|-|-3h4p3-3h4p3-------------4-3---5-4---|
| . . . . |-|-------------------------------------|-|-------------------------------------|-|-------------------------------------|-|-------------------------------------|-|-----------------------------4-----5-|-|-------------2h3p2-1h2p1-----2-----3-|-|-3h4p3-3h4p3-------------4-3---5-4---| . . . .
[Riff 3 (x2)]||----------------------------|------------------------------------------|-||o---------------------------|---------------------------------------^--|-||----------------------------|----------------------------10"-9"-----8~-|-||---------------8-6---8------|----------------------8h9p8--------9-8----|-||o-8-7--------------8--------|-8h11p8-7h10p7----------------------------|-||------9-10-9p8---------9-10-|---------------8h11p8---------------------|-
| . . . . . . . . . . | . . |||----------------------------|------------------------------------------|-||----------------------------|------------------------------------------|-||o---------------------------|------------------------------------------|-||---------------------8-6-10-|-----------------------------5"-4"--------|-||o--------------3-2-1--------|-7h10p7-6h9p6---------4h5p4---------------|-||-------------------1-6-4--8-|---------------7h10p7------------------6~-|-||--6-5-2-3--2p1--------------|-----------------------------------7-6----|- . . . . . . . .
-|----------------------------|----------------------------------||-|----------------------------|---------------------------------o||-|----------------------------|-----------------------------5-8--||-|--------------------------8-|-----5-8-----6-9---------5-8------||-|-9-9------------------8-7---|-5-8-----6-9-----6-9-5-8---------o||-|-----8-8-8h9p8-9h10p9-------|----------------------------------||
| . . . . . . | . . . . . . . . . . . . . . . . |-|----------------------------|----------------------------------||-|----------------------------|----------------------------------||-|----------------------------|---------------------------------o||-|----------------------------|-----------------------------8----||-|----------------------------|-----8-------9-----------8-------o||-|-4-4----------------------1-|-8-------9-------9---8------------||-|-----3-3-1-2-1-2-3-2--1-0---|----------------------------------|| . . . . . . . . . . . . . . . . . . . .
[RIFF 2a] [RIFF 2b]
[Riff 4a]|---------------------------------------------|-|---------------------------------------------|-|---------------------------------------------|-|-----2h5p2-1h4p1-----------------------------|-|---------------------------------5h8p5-4h7p4-|-|-0-0-------------0-0-3h6p3-2h5p2-------------|-
| . . . . ||---------------------------------------------|-|---------------------------------------------|-|---------------------------------------------|-|---------------------------------------------|-|-----2h5p2-1h4p2-----------------------------|-|---------------------------------5h8p5-4h7p4-|-|-0-0-------------0-0-3h6p3-2h5p2-------------|- . . . .
-|------------------------------------------|--|------------------------------------------|--|------------------------------------------|--|-----2h5p2-1h4p1---------------------8/10-|--|-------------------------------------6/8--|--|-0-0-------------0-0-3h6p3-2h5p2-3-2------|-
| . . . . . . |-|------------------------------------------|--|------------------------------------------|--|------------------------------------------|--|------------------------------------------|--|-----2h5p2-1h4p2---------------------8/10-|--|-------------------------------------6/8--|--|-0-0-------------0-0-3h6p3-2h5p2-3-2------|- . . . . . .
-|---------------------------------------------|--|---------------------------------------------|--|---------------------------------------------|--|-----2h5p2-1h4p1-----------------------------|--|---------------------------------5h8p5-4h7p4-|--|-0-0-------------0-0-3h6p3-2h5p2-------------|-
| . . . . |-|---------------------------------------------|--|---------------------------------------------|--|---------------------------------------------|--|---------------------------------------------|--|-----2h5p2-1h4p2-----------------------------|--|---------------------------------5h8p5-4h7p4-|--|-0-0-------------0-0-3h6p3-2h5p2-------------|- . . . .
-|-----------------------------------------|-|-----------------------------------------|-|-----------------------------------------|-|-----2h5p2-1h4p1-------------------------|-|-----------------------------------------|-|-0-0-------------0-0-3h6p3-2h5p2-5-4-3---|
| . . . . . . . |-|-----------------------------------------|-|-----------------------------------------|-|-----------------------------------------|-|-----------------------------------------|-|-----2h5p2-1h4p2-------------------------|-|-----------------------------------------|-|-0-0-------------0-0-3h6p3-2h5p2-5-4-3---| . . . . . . .
[Riff 4a]|---------------------------------------------|-|---------------------------------------------|-|---------------------------------------------|-|-----2h5p2-1h4p1-----------------------------|-|---------------------------------5h8p5-4h7p4-|-|-0-0-------------0-0-3h6p3-2h5p2-------------|-
| . . . . ||---------------------------------------------|-|---------------------------------------------|-|---------------------------------------------|-|---------------------------------------------|-|-----5h8p5-4h7p4-----------------3h6p3-2h5p2-|-|---------------------------------------------|-|-0-0-------------0-0-6h9p6-5h8p5-------------|- . . . .
-|------------------------------------------|--|------------------------------------------|--|------------------------------------------|--|-----2h5p2-1h4p1---------------------8/10-|--|-------------------------------------6/8--|--|-0-0-------------0-0-3h6p3-2h5p2-3-2------|-
| . . . . . . |-|------------------------------------------|--|------------------------------------------|--|------------------------------------------|--|------------------------------------------|--|-----5h8p5-4h7p4---------------------8/10-|--|-------------------------------------6/8--|--|-0-0-------------0-0-6h9p6-5h8p5-3-2------|- . . . . . .
-|---------------------------------------------|--|---------------------------------------------|--|---------------------------------------------|--|-----2h5p2-1h4p1-----------------------------|--|---------------------------------5h8p5-4h7p4-|--|-0-0-------------0-0-3h6p3-2h5p2-------------|-
| . . . . |-|---------------------------------------------|--|---------------------------------------------|--|---------------------------------------------|--|---------------------------------------------|--|-----5h8p5-4h7p4-----------------3h6p3-2h5p2-|--|---------------------------------------------|--|-0-0-------------0-0-6h9p6-5h8p5-------------|- . . . .
-|-----------------------------------------|-|-----------------------------------------|-|-----------------------------------------|-|-----2h5p2-1h4p1-------------------------|-|-----------------------------------------|-|-0-0-------------0-0-3h6p3-2h5p2-5-4-3---|
| . . . . . . . |-|-----------------------------------------|-|-----------------------------------------|-|-----------------------------------------|-|-----------------------------------------|-|-----5h8p5-4h7p4-------------------------|-|-----------------------------------------|-|-0-0-------------0-0-6h9p6-5h8p5-5-4-3---| . . . . . . .
[RIFF 1c (x2) [RIFF 1a (x2)]
[Riff 5 (x6)] /2 times as outro and 4 times under solo/|-------------------------|-------------------6--6-||-------------------------|-------------------6--6-||---------7/9-------------|---------7/9------------||-5-----9-5/7-----------9-|-5-----9-5/7------------||-3-333-7-----7-----7---7-|-3-333-7-----7----------||-------------5-555-5/6---|-------------5-555------| . ... . . ... . . ... . . ...
[RIFF 3 (x2)]
[Riff 6a]||--------------------------------------|--------------------------------||||o-------------------------------------|-------------------------------o||||--------------------------------5h8p5-|--------------------------------||||----------------------4h7p4-----------|----------------------------2---||||o-------7-----3-4-6-0-------6-0-------|-------7-----3-4-----1------2--o||||--7-6-5---6-5-------------------------|-7-6-5---6-5-----4-3-1--4-3-----||
| . . . . . . . . . . . . | . . . . . . . . . . . . |||--------------------------------------|--------------------------------||||--------------------------------------|--------------------------------||||o-------------------------------------|-------------------------------o||||--------------------------------5h8p5-|--------------------------------||||o---------------------4h7p4-----------|----------------------------2--o||||--------7-----3-4-6-0-------6-0-------|-------7-----3-4-----1------2---||||--7-6-5---6-5-------------------------|-7-6-5---6-5-----4-3-1--4-3-----||
. . . . . . . . . . . . . . . . . . . . . . . . _______________________________[Riff 6b] |1.||--------------------------------------|--------------------------------||||o-------------------------------------|-------------------------------o||||--------------------------------5h8p5-|--------------------------------||||--------9-----5-6-----4h7p4-----------|-------9-----5-6------------2---||||o-9-8-7---8-7-----6-0-------6-0-------|-9-8-7---8-7---------1------2--o||||--------------------------------------|-----------------4-3-1--4-3-----||
| . . . . . . . . . . . . | . . . . . . . . . . . . |||--------------------------------------|--------------------------------||||--------------------------------------|--------------------------------||||o-------------------------------------|-------------------------------o||||--------------------------------5h8p5-|--------------------------------||||o---------------------4h7p4-----------|----------------------------2--o||||--------7-----3-4-6-0-------6-0-------|-------7-----3-4-----1------2---||||--7-6-5---6-5-------------------------|-7-6-5---6-5-----4-3-1--4-3-----||
. . . . . . . . . . . . . . . . . . . . . . . . _____________________________ |2. ------------------------------| ------------------------------| ------------------------------| -------9-----5-6--------------| -9-8-7---8-7---------1--5--1--| -----------------4-3-1--5--1--|
. . . . . . . . . . . . . | ------------------------------| ------------------------------| ------------------------------| ------------------------------| ------------------------------| -------7-----3-4-----1--5--1--| -7-6-5---6-5-----4-3-1--5--1--| . . . . . . . . . . . . .
[RIFF 4a] [RIFF 4b] [RIFF 2a] [RIFF 2b] [INTRO] [RIFF 1c (x2)] [RIFF 1b (x2)]
Please rate this tab:
x1.0