Spill Canvas - Sunsets And Carcrashes tab

--------------------------------------------------------
     Sunsets and carcrashes - The Spill Canvas
--------------------------------------------------------
Tabbed by: Kevin V.
Email: Kevin_verluyten@hotmail.com


capo on 1

|-0-0-0-2-0--0-2-0-0-0-3-0--|-0-2-0-0-0-3-|------------||-0-0-0-0-0--0-0-3-0-0-0-2--|-0-0-3-0-0-0-|------------||-0-7-0-0-0--0-0-0-7-0-0-0--|-0-0-0-7-0-0-|-x2---------||-2-7-2-2-2--2-2-2-7-2-2-2--|-2-2-2-7-2-2-|------------||-2-5-3-3-3--2-2-2-5-3-3-3--|-2-2-2-5-3-3-|------------||-0----------0-0-0----------|-0-0-0-------|------------|
|------------------------------------------------------||-------------3----------------------------------------||---0--0--0--------------------------------------------| x4|---2/4-4---4-5----------------------------------------||-2------5--3-3----------------------------------------||-0---------0-0----------------------------------------|
|-0-0-0-0-0--0-0-0-------------------------------------||-0-0-0-0-0--0-0-0-------------------------------------||-0-5-4-2-0--5-4-0--0--5-4-2-0--0-0-0-2-0--------------||-2-2-2-2-2--2-2-2--0--0-0-0-0--0-2-0-2-2--------------||-2-2-2-2-2--3-3-3--2--0-0-0-0--3-3-3-3-3--------------||-0-0-0-0-0---------3--2-2-2-2-------------------------|
|-0-0-0-0--0-0-----------------------------------------||-0-0-0-0--0-0-----------------------------------------||-5-4-2-0--0-5--0--2--0-0-0-2-0------------------------||-2-2-2-2--2-2--0--0--0-2-0-2-2------------------------||-2-2-2-2--3-3--2--0--3-3-3-3-3------------------------||-0-0-0-0-------3--2-----------------------------------|
|-0-0-0-2-0--0-2-0-0-0-3-0--|-0-2-0-0-0-3-|------------||-0-0-0-0-0--0-0-3-0-0-0-2--|-0-0-3-0-0-0-|------------||-0-7-0-0-0--0-0-0-7-0-0-0--|-0-0-0-7-0-0-|-x2---------||-2-7-2-2-2--2-2-2-7-2-2-2--|-2-2-2-7-2-2-|------------||-2-5-3-3-3--2-2-2-5-3-3-3--|-2-2-2-5-3-3-|------------||-0----------0-0-0----------|-0-0-0-------|------------|
|-0-0-0---0-0-0----------------------------------------||-0-0-0---0-0-0----------------------------------------||-0-7-0---0-7-0----------------------------------------| x2|-2-7-2---2-7-2----------------------------------------||-2-5-3---2-5-3----------------------------------------||-0-------0--------------------------------------------|
|------------------------------------------------------||-------------3----------------------------------------||---0--0--0--------------------------------------------| x4|---2/4-4---4-5----------------------------------------||-2------5--3-3----------------------------------------||-0---------0-0----------------------------------------|
|-0-0-0-0-0--0-0-0-------------------------------------||-0-0-0-0-0--0-0-0-------------------------------------||-0-5-4-2-0--5-4-0--0--5-4-2-0--0-0-0-2-0--------------||-2-2-2-2-2--2-2-2--0--0-0-0-0--0-2-0-2-2--------------||-2-2-2-2-2--3-3-3--2--0-0-0-0--3-3-3-3-3--------------||-0-0-0-0-0---------3--2-2-2-2-------------------------|
|-0-0-0-0--0-0-0-0-------------------------------------||-0-0-0-0--1-0-0-0-------------------------------------||-5-4-2-0--0-4-2-0--0-0-0--2--0-0-0-2-0----------------||-2-2-2-2--2-2-2-2--0-4-5--0--0-2-0-2-2----------------||-2-2-2-2--3-3-3-3--2-2-2--0--3-3-3-3-3----------------||-0-0-0-0-----------3-3-3--2---------------------------|
|-0--0-0-----------------------------------------------||-0--0-0-3--3--3--0-0-3-3-3-3-3------------------------||-0--0-0-0--0--2--0-0-0-0-0-2-0------------------------| x2|-2--4-2-2--0--0--0-0-4-2-0-0-0------------------------||-2--3-3-3--2--0--0-2-3-3-3-3-3------------------------||-0---------3--2---------------------------------------|
|-0-0-0-0--0-0-0-0-------------------------------------||-0-0-0-1--0-0-0-1-----------1-------------------------||-0-2-4-0--0-2-4-0--0-2-4--4-4--0-0-0-2-0--------------| x2|-2-2-2-2--2-2-2-2--0-0-0--0-0--0-2-0-2-2--------------||-2-2-2-2--3-3-3-3--2-2-2--0-0--3-3-3-3-3--------------||-0-0-0-0-----------3-3-3--2-2-------------------------|
|-3-2--0-0--3--2---0-|-0-------------------------------||-0-0--0-3--0--0---0-|-0-------------------------------||-0-0--0-0--0--2---0-|-0-------------------------------| |-2-2--2-2--0--0---2-|-2-------------------------------||-2-2--3-3--2--0---3-|-2-------------------------------||-0-0-------3--2-----|-0-------------------------------|
Tap to rate this tab
 
# A B C D E F G H I J K L M N O P Q R S T U V W X Y Z