Spiritualized – So Long You Pretty Thing tab

Intro:

G. F#m. Em.
If you feel lonely...

D. C#m. Bm.
and the worlds aaagainst you...

Repeat until:

D.
Noooo more...



Intro Strings:

Violins:---------------------------------------------------------|-12--10--8--10---------------------12--10---10--10-------|-12--11--9--11--7p6h7--6p4h6--6p4--12--11---9---7--------|---------------------------------------------------------|-10--9---7---9--5p4h5--4p2h4--4p2--10---9---7---5--------|---------------------------------------------------------|
Viola:
---------------------------------------------|---------------------------------------------|---------------------------------------------|--9--7--5-------------9--7--5----------------|-------------5--4--2-------------5-----------|---------------------------------------------|
Cello: (8vb)
------------------------------------------------|------------------------------------------------|------------------------------------------------|------------------------------------------------|--10--9--7--------------10--9--7--5-------------|---------------7--5--0--------------------------|
"hehehe" Verse: Distant Choir "ooohs" : Drone - E Chords: A, C#m, F#m, E Repeat until: Bm I've got no reason... F#m To be here.... E Anymoooore... (Guitar Fill):
--------------------------|--------------------------|--------------------------|--------------------------|--------0h2p0-------------|--0h2---------------------|
(Verse Chords - A, C#m, F#m, E) Banjo!: (Improvise over A Major shape)
E.g:------------------------------------------5-------------|--------5-------------5h7p5--------5--------5----5h7p5--|--6-6-----6--6--6-------------6-6----6---------6--------|--------------------------------------------------------|--------------------------------------------------------|--------------------------------------------------------|
Bm Im hopin... F#m For a reason... E To be here... D (Guitar Fill):
----------------------------------------------|----------------------------------------------|----------------------------------------------|----------------------------------------------|--11p9--7--5p4--5/7--7--5p4---------0h2p0-----|--------------------------------0h2-----------|
Verse: A, C#m, F#m, D, A Bm I've got no reason... F#m To be Livin' E Anymore.. D (Verse) Bm Oh God Im hopin F#m For the reason B TO BE CLEAAARRR!!!!!!!! D (REFRAIN) - Major Bar Chords: A So Long.. E you pretty things.. D God save your little souls D - E A The music.. E that you played D so hard ain't on your radio D - E A And all your dreams.. E of diamond rings D and all that Rock N Roll D - E Can bring you A - D - E Sail on, So long A - D - E (Repeat Indefinitely) Horns(listen for rhythm): (The Bits within the '|* *|' - are the main Horn phrases)
|*---------*|-------------|*----------*|-------------|*-12--14-----*||*---------*|-------------|*-14-15----*|-------------|*---------10-*||*-14-16-11*|---11--11-14-|*-------14-*|--11--11-14--|*------------*||*---------*|-----14------|*----------*|----14-------|*------------*||*---------*|-------------|*----------*|-------------|*------------*||*---------*|-------------|*----------*|-------------|*------------*|
........."Sail On,So Long"...
-10-9----------|*----------*|------10---10--|*--12--10--*|---------11----|*----------*|---------------|*----------*|---------------|*----------*|---------------|*----------*|
------------------------------|------------------------------|------------14-------14--16---|--14--16-------16-------------|------------------------------|------------------------------|
(Repeat) Choir 'AAAHS'
----------------------------------|--14--15--17----------------------|----------------------------------|--11--12--14----------------------|----------------------------------|----------------------------------|
Choir 'So Long'
---------------------------------------|--17/--14------------------------------|---------------------------------------|--14/--11------------------------------|---------------------------------------|---------------------------------------|
Repeat until: 'Sail on, So Long'
(Choir)------------------------------------|--12/-14--15--17--------------------|------------------------------------|--9/--11--12--14--------------------|------------------------------------|------------------------------------|
(Repeat) Guitar Lick:
-------------------------------|-------------------------------|--------2h4---4b5r4--2---------|--2h4--------------------------|-------------------------------|-------------------------------|
-5-5-5-5-5-5-5-5--|-5-5-5-5-5-5-5-5--|------------------|------------------|------------------|------------------|
Please rate this tab:
x1.0