Spoon - Wont Give Me The Blues tab

This is as good as I could get the song, cause when I play it I nearly always through in 
little variation.

I don't belive that a song should be played exactly the same every time.

Once I've got the song recorded I will be uploading it onto myspace so you can hear it 
work out the rhytem etc.

Intro:

|--------------------------------------------------||-----------3--------------------------------------||--------0-----0-----------------------------------||-----2-----------2--------------------------------| x2|--------------------------------------------------||--0-----------------------------------------------|
|--------------------------------------------------||--------------------------------------------------||-----------3--------------------------------------||--------0-----0-----------------------------------| x2|-----2-----------2--------------------------------||--3-----------------------------------------------|
|--------------------------------------------------||-----------3--------------------------------------||--------0-----0-----------------------------------||-----0-----------0--------------------------------| x2|--2-----------------------------------------------||--3-----------------------------------------------|
|--------------------------------------------------||-----------3--------------------------------------||--------0-----0-----------------------------------||-----2-----------2--------------------------------| x2|--------------------------------------------------||--0-----------------------------------------------|
|--------------------------------------------------||--------------------------------------------------||-----------3--------------------------------------||--------0-----0-----------------------------------| x2|-----2-----------2--------------------------------||--3-----------------------------------------------|
|--------------------------------------------------||-----------3--------------------------------------||--------0-----0-----------------------------------||-----0-----------0--------------------------------| x4|--2-----------------------------------------------||--3-----------------------------------------------|
Verse:
|--0--0-00-----------------------------------------||--3--3-33-----------------------------------------||--0--0-00-----------------------------------------||--2--2-22-----------------------------------------||--0--0-00-----------------------------------------||--0--0-00-----------------------------------------| ^
|--0--0-00-----------------------------------------||--3--3-33-----------------------------------------||--0--0-00-----------------------------------------||--2--2-22-----------------------------------------||--3--3-33-----------------------------------------||--0--0-00-----------------------------------------| ^
|--0-0-000000--------------------------------------||--3-3-333333--------------------------------------||--0-0-000000--------------------------------------||--0-0-000000--------------------------------------||--2-2-222222--------------------------------------||--3-3-333333--------------------------------------| ^ ^
Outro: [Played at the bottom of the strings]
|--------------------------------------------------||-----------3--------------------------------------||--------0-----0-----------------------------------||-----2-----------2--------------------------------| x4|--------------------------------------------------||--0-----------------------------------------------|
|--------------------------------------------------||--------------------------------------------------||-----------3--------------------------------------||--------0-----0-----------------------------------| x4|-----2-----------2--------------------------------||--3-----------------------------------------------|
|--------------------------------------------------||-----------3--------------------------------------||--------0-----0-----------------------------------||-----0-----------0--------------------------------| x4|--2-----------------------------------------------||--3-----------------------------------------------|
|--3~~~~~--33--------------------------------------||--3~~~~~--33--------------------------------------||--0~~~~~--00--------------------------------------||--0~~~~~--00--------------------------------------||--2~~~~~--22--------------------------------------||--3~~~~~--33--------------------------------------| ^
Tap to rate this tab
 
# A B C D E F G H I J K L M N O P Q R S T U V W X Y Z