Star Fucking Hipsters - Snitch To The Suture tab version 3

Band - Star Fucking Hipsters
Song - Snitch To The Suture
Album - Untill We're Dead

Tabbed By: SumFX (Tyler Freear)

Tuning: Eb (Eb Ab Db Gb Bb Eb)

Great Tune And A Pretty Simple Solo When You Break It Down.

I Have Tabbed Both Rhythm (Right Speaker) & Lead (Left Speaker) Guitars!
Rhythm Guitar On Top
Lead Guitar At Bottom

.=Palm Mute
/=Slide
b=Bend
b(7)= Bend To That Note
bd=Bend Down

-----------------------------------------------------------------------------
                             Rhythm Guitar

Intro/Pre Verse|-----------------------||-----------------------||-----------------------||-----------------------||-------5---------------||-3-5-3---3-3-5-3-2-2-5-|
|----------------------||----------------------||----------------------||----------------------||-------5--------------||-3-5-3---3-3-5-3-5-2--|
|-----------------------||-----------------------||-----------------------||-----------------------||-------5---------------||-3-5-3---3-3-5-3-2-2-5-|
|---------------------||---------------------||---------------------||---------2/5-2-5-4---||-----5-0-------------||-3-5-----------------|
Verse(Clean, Ska Rhythm)|-33-3-3-3-3-3-3-3-33-3-3-3-3-3------||-33-3-3-3-3-3-3-3-44-4-4-4-4-4-7-7--||-44-4-4-4-4-4-4-4-55-5-5-5-5-5-7-7--||-55-5-5-5-5-5-5-5-55-5-5-5-5-5-7-7--||-55-5-5-5-5-5-5-5-33-3-3-3-3-3-5-5--||-33-3-3-3-3-3-3-3-------------------|
Chorus(Clean, Ska Rhythm)|-8-8--8-8-8---------------------------1010-101010--||-8-8--8-8-8--1212-121212-1010-101010--1010-101010--||-8-8--8-8-8--1212-121212-1010-101010--1111-111111--||-1010-101010-1212-121212-1010-101010--1212-121212--||-1010-101010-1010-101010-8-8--8-8-8---1212-121212--||-8-8--8-8-8---------------------------1010-101010--|
|-8-8--8-8-8------------------------10--||-8-8--8-8-8--1212-121212-10101010--10--||-8-8--8-8-8--1212-121212-10101010--11--||-1010-101010-1212-121212-10101010--12--||-1010-101010-1010-101010-8-8-8-8---12--||-8-8--8-8-8------------------------10--|
BridgeJoins In At 1.37|---------------------------|-----------------------||---------------------------|-----------------------||---------------------------|-----------------------||---------------------------|-----------------------||---------------------------|-----------------------||-12/3-3-2--2-3--3-2--2/10--|-3-3-2--2-3-3-2--2/10--|
Pre Solo|------------------------------------||------------------------------------||----------------------------------7-||-5-555555-4-444444-5-555555-4-444-7-||-5-555555-4-444444-5-555555-4-444-5-||-3-333333-2-222222-3-333333-2-222---|
Pre Solo 2/Solo|---------------------------------||---------------------------------||-----7-------7--------7-------7--||-555---5-444---4--555---5-444----||---------------------------------||---------------------------------|
---------------------------------------------------------------------------- Lead Guitar
Intro/Pre Verse|-----------------------||-----------------------||-----------------------||-----------------------||-------5---------------||-3-5-3---3-3-5-3-2-2-5-|
|----------------------||----------------------||----------------------||----------------------||-------5--------------||-3-5-3---3-3-5-3-5-2--|
|-----------------------||-----------------------||-----------------------||-----------------------||-------5---------------||-3-5-3---3-3-5-3-2-2-5-|
|---------------------||---------------------||---------------------||---------2/5-2-5-4---||-----5-0-------------||-3-5-----------------|
Verse(Clean, Ska Rhythm)|-33-3-3-3-3-3-3-3-33-3-3-3-3-3------||-33-3-3-3-3-3-3-3-44-4-4-4-4-4-7-7--||-44-4-4-4-4-4-4-4-55-5-5-5-5-5-7-7--| |-55-5-5-5-5-5-5-5-55-5-5-5-5-5-7-7--||-55-5-5-5-5-5-5-5-33-3-3-3-3-3-5-5--||-33-3-3-3-3-3-3-3-------------------|
Chorus(Clean, Ska Rhythm)|-8-8--8-8-8---------------------------1010-101010--||-8-8--8-8-8--1212-121212-1010-101010--1010-101010--||-8-8--8-8-8--1212-121212-1010-101010--1111-111111--| x3|-1010-101010-1212-121212-1010-101010--1212-121212--||-1010-101010-1010-101010-8-8--8-8-8---1212-121212--||-8-8--8-8-8---------------------------1010-101010--|
|-8-8--8-8-8------------------------10--||-8-8--8-8-8--1212-121212-10101010--10--||-8-8--8-8-8--1212-121212-10101010--11--||-1010-101010-1212-121212-10101010--12--||-1010-101010-1010-101010-8-8-8-8---12--||-8-8--8-8-8------------------------10--|
Bridge|---------------------------|-----------------------||---------------------------|-----------------------||---------------------------|-----------------------||---------------------------|-----------------------||---------------------------|-----------------------||-12/3-3-2--2-3--3-2--2/10--|-3-3-2--2-3-3-2--2/10--|
Pre Solo/Pre Solo 2|------------------------------------||------------------------------------||----------------------------------7-||-5-555555-4-444444-5-555555-4-444-7-||-5-555555-4-444444-5-555555-4-444-5-||-3-333333-2-222222-3-333333-2-222---|
Bridge|---------------------------|-----------------------||---------------------------|-----------------------||---------------------------|-----------------------||---------------------------|-----------------------||---------------------------|-----------------------||-12/3-3-2--2-3--3-2--2/10--|-3-3-2--2-3-3-2--2/10--|
Solo Now Then, This Is Very Rough As Tabbing A Solo Is Much Harder Than Playing It! Use A Wah Wah (Not Essential Though) I Have Put Times For If You Get Lost.
1.58 2.00 2.01|------------|-----------|--------||------------|-----------|-3/8-8v-||-5b(7)bd(5)-|-3h5p3h5p3-|--------||------------|-----------|--------||------------|-----------|--------||------------|-----------|--------|
2.02 2.04 2.06|-15--15--15-15-15--|-15h18p15-15h18p15-------------------|--------||-18b-18b-18b18b18b-|-------------------15h18p15-15h18p15-|-15v----||-------------------|-------------------------------------|--------||-------------------|-------------------------------------|--------||-------------------|-------------------------------------|--------||-------------------|-------------------------------------|--------|
2.06 2.07 |----------------------|-------------------||----------------------|-------------------||----------------------|-------------------||----------2h5p2h5p2-2-|-4/5-5/7--7/8\7-4--||-2h52h5p2-------------|-------------------||----------------------|-------------------|
2.11|-----------------------------||-----------------------------||-5/777-5/777-5b(7)bd(5)p3----||--------------------------5--||-----------------------------||-----------------------------|
Intro Verse Chorus Pre Verse Verse Chorus Bridge Pre Solo x2 Pre Solo 2 x2 Solo x4 For Rhythm Pre Verse
Interlude (Begins When Song Ends)Natural Harmonics|-------------------||-------------------||-------------------||-5----5----5-------||---5----5----5-5---||-------------------|
And Thats It! Rate, Comment, Corrections?
Tap to rate this tab
 
# A B C D E F G H I J K L M N O P Q R S T U V W X Y Z