Star Fucking Hipsters – 3000 Miles Away tab ver. 2

Band - Star Fucking Hipsters
Song - 3000 Miles Away
Album - Never Rest In Peace

Tabbed By: SumFX (Tyler Freear)

Tuning: Eb (Eb Ab Db Gb Bb Eb)

Great Track Which Has 3 Guitars In It!
Guitar 1 Rhythm - Left Speaker
Guitar 2 Rhythm - Right Speaker
Guitar 3 Lead - Both Speakers

.=Palm Mute
/=Slide
h=Hammer On
p=Pull Off

-----------------------------------------------------------------------------
                            Guitar 1

Intro|-----------------------||-----------------------||-99999-88888-66666-----||-99999-99999-66666-7-9-||-77777-66666-44444-7-9-||-------------------5-7-|
Verse 1, 2 & 3|-----------------------------||-----------------------------||-99999-88888-66666-----------| |-99999-99999-66666-77777-999-||-77777-66666-44444-77777-999-||-------------------55555-777-|
Chorus 1|---------------------------||---------------------------||-------------999-888-66666-||-77777-99999-999-999-66666-||-77777-99999-777-666-44444-||-55555-77777---------------|
|----------------||----------------||----------------||-77777-99999----||-77777-99999----||-55555-77777----|
Chorus 2|---------------------------||---------------------------||-------------999-888-66666-||-77777-99999-999-999-66666-||-77777-99999-777-666-44444-||-55555-77777---------------|
|------------------------------------------||------------------------------------------||-------------999-111111-131313-13/14\13---||-77777-99999-xxx-x-x-x--x-x-x--x--x--x----||-77777-99999-777-9-9-9--111111-11/12\11---||-55555-77777------------------------------|
|---------------------------||---------------------------||-------------999-888-66666-||-77777-99999-999-999-66666-||-77777-99999-777-666-44444-||-55555-77777---------------|
|----------------||----------------||----------------||-77777-99999----||-77777-99999----||-55555-77777----|
Chorus 3|---------------------------||---------------------------||-------------999-888-66666-||-77777-99999-999-999-66666-||-77777-99999-777-666-44444-||-55555-77777---------------|
|------------------------------------------||------------------------------------------||-------------999-111111-131313-13/14\13---||-77777-99999-xxx-x-x-x--x-x-x--x--x--x----||-77777-99999-777-9-9-9--111111-11/12\11---||-55555-77777------------------------------|
|---------------------------||---------------------------||-------------999-888-66666-||-77777-99999-999-999-66666-||-77777-99999-777-666-44444-||-55555-77777---------------|
|----------------|---------------------------------------------------||----------------|---------------------------------------------------||----------------|---------------------------------------------------||-77777-999-7-6--|-44444444-6-777777777-6-444444444-6-77777-99999999-||-77777-999-7-6--|-44444444-6-777777777-6-444444444-6-77777-99999999-||-55555-777-5-4--|-22222222-4-555555555-4-222222222-4-55555-77777777-|
BridgeClean Tone|--------------------------------------------||-----9--------9--------5--------------------||-----9--------9--------6-------6-----8------||---9---9----9---9----6---6-----7-----9------||-7--------6--------4------------------------||----------------------------5-----7---------|
|---------------------------------||---------------------------------||-----6--------6----------8-------||-----7--------7--------9---9-----||---7---7----7---7----9-------9---||-5--------5--------7-------------|
|------------------------------------||-----9--------9--------5------5-----||-----9--------9--------6------6-----||---9---9----9---9----6---6--6---6---||-7--------6--------4----------------||------------------------------------|
|----------------------------||----------------------------||-------6------------8-------||-----7---7--------9---9-----||---7------7-----9-------9---||-5----------5-7-----------7-|
Pre Outro Chorus|--------------------------------||--------------------------------||-99999999-88888888-66666666-----||-99999999-99999999-66666666-7-9-||-77777777-66666666-44444444-7-9-||----------------------------5-7-| ........ ........ ........
Outro Chorus|--------------------------------||--------------------------------||-999999-888888-666666-----------| |-999999-999999-666666-77777-999-||-777777-666666-444444-77777-999-||----------------------55555-777-|
E5|-------------------||-------------------||---------------9---||-2-------------9---||-2-------------7---||-0-----------------|
---------------------------------------------------------------------------- Guitar 2
Intro|------------------||------------------||---------9--------||-7---9---9--------||-7---9---7--------||-5---7------------|
|--------------||--------------||--------------||-7---9--------||-7---9--------||-5---7--------|
Verse 1|--------------||--------------||--------------||-7---9--------||-7---9--------||-5---7--------|
Chorus 1|---------------------------||---------------------------||-------------999-888-66666-||-77777-99999-999-999-66666-||-77777-99999-777-666-44444-||-55555-77777---------------|
|----------------||----------------||----------------||-77777-99999----||-77777-99999----||-55555-77777----|
Verse 2 & 3 |-----------------------------||-----------------------------||-----------------------------| x2|-------------------77777-999-||-77777-66666-44444-77777-999-||-------------------55555-777-| ..... ..... .....
Chorus 1 & 2|---------------------------||---------------------------||-------------999-888-66666-||-77777-99999-999-999-66666-| x3|-77777-99999-777-666-44444-||-55555-77777---------------|
|----------------||----------------||----------------||-77777-99999----||-77777-99999----||-55555-77777----|
Chorus 3|---------------------------||---------------------------||-------------999-888-66666-||-77777-99999-999-999-66666-| x3|-77777-99999-777-666-44444-||-55555-77777---------------|
|----------------|---------------------------------------------------||----------------|---------------------------------------------------||----------------|---------------------------------------------------||-77777-999-7-6--|-44444444-6-777777777-6-444444444-6-77777-99999999-||-77777-999-7-6--|-44444444-6-777777777-6-444444444-6-77777-99999999-||-55555-777-5-4--|-22222222-4-555555555-4-222222222-4-55555-77777777-|
BridgeClean Tone|--------------------------------------------||-----9--------9--------5--------------------||-----9--------9--------6-------6-----8------||---9---9----9---9----6---6-----7-----9------||-7--------6--------4------------------------||----------------------------5-----7---------|
|---------------------------------||---------------------------------||-----6--------6----------8-------||-----7--------7--------9---9-----||---7---7----7---7----9-------9---||-5--------5--------7-------------|
|------------------------------------||-----9--------9--------5------5-----||-----9--------9--------6------6-----||---9---9----9---9----6---6--6---6---||-7--------6--------4----------------||------------------------------------|
|----------------------------||----------------------------||-------6------------8-------||-----7---7--------9---9-----||---7------7-----9-------9---||-5----------5-7-----------7-|
Pre Outro Chorus|------------------||------------------||---------9--------||-7---9---9--------||-7---9---7--------| x3|-5---7------------|
|--------------||--------------||--------------||-7---9--------||-7---9--------||-5---7--------|
Outro Chorus|--------------------------------||--------------------------------||-999999-888888-666666-----------| |-999999-999999-666666-77777-999-||-777777-666666-444444-77777-999-||----------------------55555-777-|
E5|-------------------||-------------------||---------------9---||-2-------------9---||-2-------------7---||-0-----------------|
---------------------------------------------------------------------------- Guitar 3
Solo Come In At: 1.28|---------------------------------------------------||------------10--12p10p9----------------9h10h12--12-||-9/11-9-11--------------11p9p8--8h9h10-------------||---------------------------------------------------||---------------------------------------------------||---------------------------------------------------|
Outro SoloComes In At 2.38|-------------------|------------------||-------------------|-------10-9-------||-8/9--8-9-11-9-8-9-|-9-8-9------11-9--||-------------------|------------------| x2|-------------------|------------------||-------------------|------------------|
|-------------------|-------9-7--------||-9--7-9-10-9-7-9---|-9-7-9-----10-9---||-------------------|------------------||-------------------|------------------||-------------------|------------------||-------------------|------------------|
|-------------------|------------------||-------------------|-------10-9-------||-8/9--8-9-11-9-8-9-|-9-8-9------11-9--||-------------------|------------------| |-------------------|------------------||-------------------|------------------|
OverdubStarts At: 2.03|-12-----||---12---||--------||--------||--------||--------|
Structure Intro Verse 1 Chorus 1 Verse 2 Chorus 2 Verse 3 Chorus 3 w/Solo Bridge Pre Outro Chorus Outro Chorus w/Outro Solo And Thats 3000 Miles Away For Ya'! Rate & Comment Please!
Please rate this tab:
x1.0