Star Fucking Hipsters - Death Or Fight tab

Band: Star Fucking Hipsters
Song: Death or Fight
Album: Until We're Dead

Eb Tuning

Intro/Verse|----------0------------------------0-------------||--------1----1-------------------0---0-----------||------0--------0----x2---------0-------0----x2---||----2------------2-----------2----------2--------||--3------------------------2---------------------||-------------------------------------------------|
Chorus|-------------------------------------------------------||-------------------------------------------------------||-------2--------------4----------5-----5-----2---------||-----3---3--3-------5---5--5----5-----5-----2----x3----||---3-------3------5------5-----3-----2-----0-----------||-1--------------3--------------------------------------|
Verse|----------0------------------------0-------------||--------1----1-------------------0---0-----------||------0--------0----x2---------0-------0----x2---||----2------------2-----------2----------2--------||--3------------------------2---------------------||-------------------------------------------------|
Chorus|-------------------------------------------------------||-------------------------------------------------------||-------2--------------4----------5-----5-----2---------||-----3---3--3-------5---5--5----5-----5-----2----x3----||---3-------3------5------5-----3-----2-----0-----------||-1--------------3--------------------------------------|
Chorus w/ distortion|-------------------------------------------------||-------------------------------------------------||------------------9-------7-------5-------5------||-3----5---------9---9---9---9---7---7---7--------||-3-x8-5-x8---10-------9-------7-------7----------||-1----3------------------------------------------| palm mute
|-------------------------------------------------||-------------------------------------------------||------------5------7------9-----10------9--------||-3----5-----x--x4--x--x4--x--x5-x-------x--------||-3-x8-5-x8--3------5------7-----8-------7--------||-1----3------------------------------------------|
palm mute *slide*|-------------------------------------------------||-------------------------------------------------||------------------9-------7-------5-------5------||-3----5---------9---9---9---9---7---7---7--------||-3-x8-5-x8---10-------9-------7-------7----------||-1----3------------------------------------------| palm mute
|-------------------------------------------------||-------------------------------------------------||-------------------------------------------------||-3-3-3-3-3-3-3-3--5-5-5-5-5-5-5-5----------------||-3-3-3-3-3-3-3-3--5-5-5-5-5-5-5-5----------------||-1-1-1-1-1-1-1-1--3-3-3-3-3-3-3-3----------------| palm mute
Intro|----------0------------------------0-------------||--------1----1-------------------0---0-----------||------0--------0----x2---------0-------0----x2---||----2------------2-----------2----------2--------||--3------------------------2---------------------||-------------------------------------------------|
Chorus|-------------------------------------------------||-------------------------------------------------||------------------9-------7-------5-------5------||-3----5---------9---9---9---9---7---7---7--------||-3-x8-5-x8---10-------9-------7-------7----------||-1----3------------------------------------------| palm mute
|-------------------------------------------------||-------------------------------------------------||------------5------7------9-----10------9--------||-3----5-----x--x4--x--x4--x--x5-x-------x--------||-3-x8-5-x8--3------5------7-----8-------7--------||-1----3------------------------------------------| palm mute *slide*
|-------------------------------------------------||-------------------------------------------------||------------------9-------7-------5-------5------||-3----5---------9---9---9---9---7---7---7--------||-3-x8-5-x8---10-------9-------7-------7----------||-1----3------------------------------------------| palm mute
|-------------------------------------------------||-------------------------------------------------||-------------------------------------------------||-3-3-3-3-3-3-3-3--5-5-5-5-5-5-5-5----------------||-3-3-3-3-3-3-3-3--5-5-5-5-5-5-5-5----------------||-1-1-1-1-1-1-1-1--3-3-3-3-3-3-3-3----------------| palm mute
Operatic part #1|-------------------------------------------------||---------5---------------------------------------||-----5-----5-----------5---5---5---------5-------||---5---5-------5-----5---5---5----2------5-x16---||-3-----------3-----3--------------2-x16--3-------||----------------------------------0--------------|
|-------------------------------------------------||-------------------------------------------------||----------5----------------5---------------------||--2-------5-x16---2--------5---------------------||--2-x16---3-------2-x16----3---------------------||--0---------------0------------------------------|
Hold Fast part lead guitar|-------------------------------------------------||---5-5-5-5-5-5----8-8-8-8-8-8-8------------------||---5-5-5-5-5-5----9-9-9-9-9-9-9------------------||-------------------------------------------------||-------------------------------------------------||-------------------------------------------------|
triplets Rhythm Guitar|-------------------------------------------------||-------------------------------------------------||-------------------------------------------------||-5-5-5-5-5-5-5-5---9-9-9-9-9-9-9-9---------------||-3-3-3-3-3-3-3-3---7-7-7-7-7-7-7-7---------------||-------------------------------------------------|
|-------------------------------------------------||-------------------------------------------------||--5-5-5----8-8-8----------9-9-9------------------||--5-5-5----8-8-8--7-7-7---9-9-9------------------||--3-3-3----6-6-6--7-7-7---7-7-7------------------||------------------5-5-5--------------------------|
|-------------------------------------------------||-------------------------------------------------||-9------5-----7-----9-----10-----10--9-----------||-9--x4--5-x8--7-x8--9-x8--10-x8--x---x-----------||-7------3-----5-----7-----8------8---7-----------||-------------------------------------------------|
alternate |-------------------------------------------------||-------------------------------------------------||--5-5-5----8-8-8----------9-9-9---5-----5--------||--5-5-5----8-8-8--7-7-7---9-9-9---5-x8--5--------||--3-3-3----6-6-6--7-7-7---7-7-7---3-----3--------||------------------5-5-5--------------------------| hold
That's it. The rest is just Immigrants & Hypocrites
Tap to rate this tab
 
# A B C D E F G H I J K L M N O P Q R S T U V W X Y Z