Star Fucking Hipsters – Look Whos Talking Now tab

Band - Star Fucking Hipsters
Song - Look Who's Talking Now!
Album - Never Rest In Peace

Tabbed By: Tyler Freear (SumFX)

Tuning: Half Step Down/Eb (Eb Ab Db Gb Bb Eb)

Awesome Track, Orginally By Leftover Crack.
Guitar 1 - Left Speaker
Guitar 2 - Right Speaker
Guitar 3 - Both Speaker (Intro Lead)

Key:
.=Palm Mute
/\=Slide

-----------------------------------------------------------------------------
                               Guitar 1

Intro|---------------------------------------------------------------------||---------------------------------------------------------------------||---------------------------------------------------------------------||-5-555-5-555-5-55-5-555-5-555-5-55-5-555-5-555-5-55-5-555-5-555-5-55-||-3-333-3-333-3-33-3-333-3-333-3-33-2-222-2-222-2-22-2-222-2-222-2-22-||---------------------------------------------------------------------| ... ... .. ... ... .. ... ... .. ... ... ..
|----------------------------------------------------------0----------||----------------------------------------------------------0----------||----------------------------------------------------------0----------||-5-555-5-555-5-55-5-555-5-555-5-55-5-555-5-555-5-55-5-555-5----------||-3-333-3-333-3-33-3-333-3-333-3-33-2-222-2-222-2-22-2-222-2----------||---------------------------------------------------------------------| ... ... .. ... ... .. ... ... .. ...
Verse 1 Part 1|----------------------------------||----------------------------------||----------------------------------| |----------------------------------| X4|-33333333333333332222222222222222-||----------------------------------| ................................
Verse 1 Part 2|---------------------------------------------------------||---------------------------------------------------------||---------------------------------------------------------||-5-55-5-55-5-5-5-55-5-55-5-5-5-55-5-55-5-5-5-55-5-55-5-5-||-3-33-3-33-3-3-3-33-3-33-3-3-2-22-2-22-2-2-2-22-2-22-2-2-||---------------------------------------------------------| .. .. . .. .. . .. .. . .. .. .
Chorus|------------------------------------------------------||------------------------------------------------------||-121212121212121212-1414141414141414-1616161616161616-||-x-x-x-x-x-x-x-x-x--x-x-x-x-x-x-x-x--x-x-x-x-x-x-x-x--||-101010101010101010-1212121212121212-1414141414141414-||------------------------------------------------------|
|----------------------------------------------||----------------------------------------------||-121212121212121212-11111111111111-1212121212-||-x-x-x-x-x-x-x-x-x--x-x-x-x-x-x-x--x-x-x-x-x--||-101010101010101010-9-9-9-9-9-9-9--1010101010-||----------------------------------------------|
Pre Bridge|------------------------------------------------------||------------------------------------------------------||----------------------------------------------77-555--||-9999999999-9999999999-5555555555-77777777777-xx-xxx--||-7777777777-5555555555-2222222222-xxxxxxxxxxx-55-333--||----------------------------------55555555555---------|
Bridge|-----------------------||-----------------------||-----------------------||-5555555555-5555555555-||-3333333333-2222222222-||-----------------------|
Outro|---------------------------------------------------------||---------------------------------------------------------||---------------------------------------------------------||-5-55-5-55-5-5-5-55-5-55-5-5-5-55-5-55-5-5-5-55-5-55-5-5-||-3-33-3-33-3-3-3-33-3-33-3-3-2-22-2-22-2-2-2-22-2-22-2-2-||---------------------------------------------------------| .. .. . .. .. . .. .. . .. .. .
|----------------------------------------------------------||----------------------------------------------------------||----------------------------------------------------------||-5-55-5-55-5-5-5-55-5-55-5-5-5-55-5-55-5-5-5-55-5-5-5-5-5-||-3-33-3-33-3-3-3-33-3-33-3-3-2-22-2-22-2-2-2-22-2-2-2-2-2-||----------------------------------------------------------| .. .. . .. .. . .. .. . ..
|-------------------||-------------------||-------------------||-5-----------5-----||-3-----------3-----||-------------------|
----------------------------------------------------------------------------- Guitar 2 Intro No Intro
Verse/Verse Part 2|---------------------------------------------------------||---------------------------------------------------------||---------------------------------------------------------||-5-55-5-55-5-5-5-55-5-55-5-5-5-55-5-55-5-5-5-55-5-55-5-5-| X4|-3-33-3-33-3-3-3-33-3-33-3-3-2-22-2-22-2-2-2-22-2-22-2-2-||---------------------------------------------------------| .. .. . .. .. . .. .. . .. .. .
Chorus|----------------------------------|-------------------------------||----------------------------------|-------------------------------||-12121212121212121212121212121212-|-9999999999999-55555555555555--||-x-x-x-x-x-x-x-x-x-x-x-x-x-x-x-x--|-9999999999999-55555555555555--||-10101010101010101010101010101010-|-7777777777777-33333333333333--||----------------------------------|-------------------------------|
Pre Bridge|-----------------------------------------------------------------------||-----------------------------------------------------------------------||-999999999991010101010101010101212121212121212121212141414141414141414-||-xxxxxxxxxxxx-x-x-x-x-x-x-x-x-x-x-x-x-x-x-x-x-x-x-x-x-x-x-x-x-x-x-x-x--||-777777777778-8-8-8-8-8-8-8-8-1010101010101010101010121212121212121212-||-----------------------------------------------------------------------|
Bridge|-----------------------||-----------------------||-----------------------||-5555555555-5555555555-||-3333333333-2222222222-||-----------------------|
Outro|---------------------------------------------------------||---------------------------------------------------------||---------------------------------------------------------||-5-55-5-55-5-5-5-55-5-55-5-5-5-55-5-55-5-5-5-55-5-55-5-5-||-3-33-3-33-3-3-3-33-3-33-3-3-2-22-2-22-2-2-2-22-2-22-2-2-||---------------------------------------------------------| .. .. . .. .. . .. .. . .. .. .
|----------------------------------------------------------||----------------------------------------------------------||----------------------------------------------------------||-5-55-5-55-5-5-5-55-5-55-5-5-5-55-5-55-5-5-5-55-5-5-5-5-5-||-3-33-3-33-3-3-3-33-3-33-3-3-2-22-2-22-2-2-2-22-2-2-2-2-2-||----------------------------------------------------------| .. .. . .. .. . .. .. . ..
|-------------------||-------------------||-------------------||-5-----------5-----||-3-----------3-----||-------------------|
----------------------------------------------------------------------------- Guitar 3
SoloSolo|----------------------------------------------------------------||------------------1212121212121212-1313121212101012121010----10-||-1212121212121212----------------------------------------1212---||----------------------------------------------------------------||----------------------------------------------------------------||----------------------------------------------------------------|
|-----------------------------------||-----------------------------------||-1212121212121212-9----------------||-------------------------9\--------||-----------------------------------||-----------------------------------|
----------------------------------------------------------------------------- Structure Intro Verse Verse Part 2 Chorus x2 Pre Bridge Bridge x4 Chorus x2 Pre Bridge x2 Bridge x2 Outro Great Song!
Please rate this tab:
x1.0