Static X - Otsegolation tab

-------------------------------------------------------------------------------
			     Otsegolation - Static-X
-------------------------------------------------------------------------------

Tabbed by:chubbs721
Email:chubbs721@hotmail.com

Tuning: CGCfad


|---||---||---||-0-| 8X|-0-||-0-|
|----16-16-16-16-16-16-||----20-20-20-20-20-20-||----------------------||-0--------------------| 4X|-0--------------------||-0--------------------|
|---------||---------||---------||-0-0-0\2-| 32X (yes, i counted)|-0-0-0\2-||-0-0-0\2-| x x x
|----16-16-16-16-16-16-||----20-20-20-20-20-20-||----------------------||-0--------------------| 4X|-0--------------------||-0--------------------|
|---------||---------||---------||-0-0-0\2-| 16X|-0-0-0\2-||-0-0-0\2-| x x x
|---||---||---||-0-||-0-||-0-|
|----16-16-16-16-16-16-||----20-20-20-20-20-20-||----------------------||-0--------------------| 4X|-0--------------------||-0--------------------|
-Bass&Drums-
|---------||---------||---------||-0-10-10-| 16X|-0-10-10-||-0-10-10-|
|----16-16-16-16-16-16-||----20-20-20-20-20-20-||----------------------||-0--------------------| 4X|-0--------------------||-0--------------------|
|---------||---------||---------||-0-10-10-| 48X|-0-10-10-||-0-10-10-|
| \ slide down | x Mute note ===============================================================================
Tap to rate this tab
 
# A B C D E F G H I J K L M N O P Q R S T U V W X Y Z