Static X - Shadow Zone tab

Static-X
Shadow Zone
Album:Shadow Zone
Tuning: CGCFAD

Key:

-   =  palm mute

Intro:  0:00

|------||------||--8---||--x---||--6---||------|Fade In With That Note
|---------------------------||---------------------------||-8-8-8--8-8-8--8-8-8--8-8--||-x-x-x--x-x-x--x-x-x--x-x--||-6-6-6--6-6-6--6-6-6--6-6--||---------------------------|
Chorus: 0:05 Guitar 1
|------------------||------------------||------------------||------------------||-----5--5-3-------||--0----------6----|
|-------------------------||-------------------------||-------------------------||-------------------------||-----5--5-3--------1-1-1-||--0----------6-----1-1-1-|
|------------------||------------------||------------------||------------------||-----5--5-3-------||--0----------6----|
|-------------------------||-------------------------||-------------------------||-------------------------||-----5--5-3--------3-3-3-||--0----------6-----3-3-3-|
Guitar 2
|----------||----15----||--14------| X32|----------||----------||----------|
Verse: 0:21
|------------------||------------------||------------------||------------------||--0-0----00--0006-||--0-0----00--0006-| X3 -- ---
|------------------||------------------||------------------||------------------||--0-0-x-----------||--0-0-x--3/6\3\1--|
^^^ Play Verse X5 Verse P 2(Tripp) 0:44
|-----------------------------17----------||--15--18-----------18---15---------------||-----------17--16------------------13----||-----------------------------------------||-----------------------------------------||-----------------------------------------|
Chorus: 0:51 Guitar 1
|------------------||------------------||------------------||------------------||-----5--5-3-------||--0----------6----|
|-------------------------||-------------------------||-------------------------||-------------------------||-----5--5-3--------1-1-1-||--0----------6-----1-1-1-|
|------------------||------------------||------------------||------------------||-----5--5-3-------||--0----------6----|
|-------------------------||-------------------------||-------------------------||-------------------------||-----5--5-3--------3-3-3-||--0----------6-----3-3-3-|
Guitar 2
|----------||----15----||--14------| x32|----------||----------||----------|
Verse: 1:07
|------------------||------------------||------------------||------------------||--0-0----00--0006-||--0-0----00--0006-| X3 -- ---
|------------------||------------------||------------------||------------------||--0-0-x-----------||--0-0-x--3/6\3\1--|
^^^ Play Verse X2
Verse P 2(Tripp)1:14|-----------------------------17----------||--15--18-----------18---15---------------||-----------17--16------------------13----||-----------------------------------------||-----------------------------------------||-----------------------------------------|
Chorus: 1:21 Guitar 1
|------------------||------------------||------------------||------------------||-----5--5-3-------||--0----------6----|
|-------------------------||-------------------------||-------------------------||-------------------------||-----5--5-3--------1-1-1-||--0----------6-----1-1-1-|
|------------------||------------------||------------------||------------------||-----5--5-3-------||--0----------6----|
|-------------------------||-------------------------||-------------------------||-------------------------||-----5--5-3--------3-3-3-||--0----------6-----3-3-3-|
Guitar 2
|----------||----15----||--14------| X32|----------||----------||----------|
Bridge 1:37
|------------------||------------------||------------------||------------------||--0-0----00--0006-||--0-0----00--0006-| X4 -- ---
1:45|------------------------------||------------------------------||------------------------------||------------------------------||------------------------------| X4|---0-------8------6-------1---| NOTE: dont play the 1 on the fourth time.
Chorus: 2:15 Guitar 1
|------------------||------------------||------------------||------------------||-----5--5-3-------||--0----------6----|
|-------------------------||-------------------------||-------------------------||-------------------------||-----5--5-3--------1-1-1-||--0----------6-----1-1-1-|
|------------------||------------------||------------------||------------------||-----5--5-3-------||--0----------6----|
|-------------------------||-------------------------||-------------------------||-------------------------||-----5--5-3--------3-3-3-||--0----------6-----3-3-3-|
Guitar 2
|----------||----15----||--14------| X32|----------||----------||----------|
^^^ Play Chorus Whole Chorus Twice.
2:47|----------------||----------------||--8-8-8--8-8-8--||--x-x-x--x-x-x--||--6-6-6--6-6-6--||----------------|
Verse:2:48|------------------||------------------||------------------||------------------||--0-0----00--0006-||--0-0----00--0006-| X3 -- ---
|------------------||------------------||------------------||------------------||--0-0-x-----------||--0-0-x--3/6\3\1--|
^^ X2
END 3:03|----------------||----------------||----------------||----------------||-x--------------||-x--3/6\3\1-----|
Tap to rate this tab
 
# A B C D E F G H I J K L M N O P Q R S T U V W X Y Z