Static X - Machine tab

------------------------------------------------------------------------------------
Machine (Tuning C-F-A#-D#-G-C)
------------------------------------------------------------------------------------

Get To The Gone-

|------------------------------------||------------------------------------||------------------------------------||------------------------------------||------------------------------------||-0000000000333333333222222221111116-|
|--------------------------||--------------------------||--------------------------||-22-8-22-8-22-8-22-8-22-8-||-22-8-22-8-22-8-22-8-22-8-||-00-6-00-6-00-6-00-6-00-6-|
|--------||--------||--------||-22-8-2-||-22-8-2-||-00-6-0-|
|-------------------------------------------------||-------------------------------------------------||-------------------------------------------------||-55555555555555555555555555555555555555566667777-||-55555555555555555555555555555555555555566667777-||-33333333333333333333333333333333333333344445555-|
|-------------------------------------------------||-------------------------------------------------||-------------------------------------------------||-55555555555555555555555555555555555555544443333-||-55555555555555555555555555555555555555544443333-||-33333333333333333333333333333333333333322221111-|
|-1515151515-||-1919191919-||------------||------------||------------||------------|
Permanence-
|--------------------||--------------------||--------------------||--------------------||-5-7--5-7--5-7-77-8-||-3-5--3-5--3-5-55-6-|
|------||------||------||------||-6--5-||-4--3-|
|----------||----------||-------*5-||----------||-6--5-----||-4--3-----|
|----------------||----------------||----------------||----------------||-99999999999999-||-77777777777777-|
|-----------------------------------------------------------------||-----------------------------------------------------------------||-----------------------------------------------------------------||-121212121212121212121210101010101010999999999999988888888888888-||-101010101010101010101088888888888888777777777777766666666666666-||-----------------------------------------------------------------|
Black And White-
|-------------||-------------||-5--55-5-----||-4--44-4-----||-3--33-3-----||-----------0-|
|-----||-----||-5-5-||-4-4-||-3-3-||-----|
|-----------------------||-----------------------||-----------------------||-3-----5------6------5-||-3-----5------6------5-||-1-----3------4------3-|
This Is Not-
|--------------------------------------------||--------------------------------------------||--------------------------------------------||------------------------------------------8-||------------------------------------------8-||-6p0-6p0-00-6p0-6p0-00-6p0-6p0-00-6p0-6p0-6-|
|----------||----------||----------||-2-2--2-2-||-2-2--2-2-||-0-0--0-0-|
|----------||----------||----------||-2-2--2-8-||-2-2--2-8-||-0-0--0-6-|
|--------------||--------------||--------------||-2-2--2-2-----||-2-2--2-2-----||-0-0--0-0-000-|
|----||----||----||-98-||-98-||-76-|
|---------------------------||---------------------------||---------------------------||-2-22---2-22---2-22-2-22-8-||-2-22---2-22---2-22-2-22-8-||-0-00-0-0-00-0-0-00-0-00-6-|
|------------------------------||------------------------------||------------------------------||-2-22--2-22--2-22--2-22-8-----||-2-22--2-22--2-22--2-22-8-----||-0-00--0-00--0-00--0-00-6-000-|
|-10101010101010-||----------------||----------------||----------------||----------------||----------------|
Otsego Undead-
|-----------------------||-----------------------||-----------------------||-2-2-5-2-2-5-2-2-5-2-2-||-2-2-5-2-2-5-2-2-5-2-2-||-0-0-3-0-0-3-0-0-3-0-0-|
|-xxxx-||-xxxx-||-xxxx-||-xxxx-||-xxxx-||-xxxx-|
|---------||---------||---------||-222-255-||-222-255-||-000-033-|
Cold-
|--------------||--------------||--------------||-2-2---2-22-2-||-2-2---2-22-2-||-0-0---0-00-0-|
|-----------------------||-----------------------||-9----119-1514----7--9-||-9----119-1514----7--9-||-7----107-1312----5--7-||-----------------------|
Structural Defect-
|----------------||----------------||----------------||----------------||----------------||-0-000000000000-|
|----------------||----------------||----------------||-2-222222222222-||-x-xxxxxxxxxxxx-||-0-000000000000-|
|---------------||---------------||---------------||-8--8--8--88---||---7--7--7---7-||-6p06p06p066p0-|
|-------------------------||-------------------------||-------------------------||-2-2222222-2-222-2-22222-||-x-xxxxxxx-x-xxx-x-xxxxx-||-0-0000000-0-000-0-00000-|
|---||---||---||-2-||-x-||-0-|
...In A Bag-
|----------||----------||----------||-----0022-||----------||-0000-----|
|---------------||---------------||---------------||---------------||---------------||-0-0-3-0--3030-|
|---||---||---||-2-||-x-||-0-|
|--------------------------||--------------------------||-13------11------9------7-||-xx------xx------x------x-||-11------9-------7------5-||--------------------------|
|----------------------------||----------------------------||-13------11------9-11-----7-||-xx------xx------x-x------x-||-11------12------7-9------5-||----------------------------|
|--------------||--------------||--------------||--------------||--------------||-000--*1.7/*2-|
|-----||-----||-----||-5-2-||-x-x-||-3-0-|
|-*12-*12-*12-||-------------||-------------||-------------||-------------||-------------|
Burn To Burn-
|-------------||-------------||-------------||-5-4--4--4-4-||-5-4--4--4-4-||-3-2--2--2-2-|
|---------||---------||---------||-4--6--7-||-x--x--x-||-2--4--5-|
|----||----||----||-12-||-xx-||-10-|
|----------------------------||----------------------------||----------------------------||-7-6--6--6-6----------------||-7-6--6--6-6----6---6---6---||-5-4--4--4-4----5p4-5p4-5p4-|
|-----||-----||-----||-5-4-||-5-4-||-3-2-|
Machine-
|-----------------------------||-----------------------------||-----------------------------||-------7-7-------------------||-------7-7-------------------||-55555-5-5----55-33-55-33-53-|
|----------------||----------------||----------------||----------------||----------------||-55-33-55-33-53-|
|----------------------------------------||----------------------------------------||-7----------------/9-----------------\7-||-7----------------/9-----------------\7-||-5----------------/7-----------------\5-||----------------------------------------|
|-----||-----||-----||-7-7-||-7-7-||-5-5-|
|-6p5h6p5h6p5h6p5h6p5h6p5h6p5-||-----------------------------||-----------------------------||-----------------------------||-----------------------------||-----------------------------|
A Dios Alma Perdida-
|---------||---------||---------||-9--9-\2-||-9--9-\2-||-7--7-\0-|
|---||---||---||-5-||-5-||-3-|
|--------------------------------||--------------------------------||--------------------------------||-9--13--12--6--10-9--5~-4-4-4-2-||-9--13--12--6--10-9--5~-4-4-4-2-||-7--11--10--4--8--7--3~-2-2-2-0-|
Tap to rate this tab
 
# A B C D E F G H I J K L M N O P Q R S T U V W X Y Z