Steel Pillow - Curse tab

Tabbed by Barrett Moore
written by Steel Pillow


chords used

A B C1-0----0----0---2-3----1----1---3-2----2----0---4-0----3----2---5------0----3---6-----------0---
Lyrics Verse 1 A B C Youve been stuck in the middle of us A and you cant find your way through A B C Sometimes you can believe its enough A Your lookin for somethin new Chorus A B Those years of fun C are all done A youre the one who put this curse on me Verse 2 A B C Someones been causin all the pain to us A but we dont know who A B C Laughters a priviledge when life is this rough A when youre feelin this screwed A And to think you thought youd be good enough A You havent thought this through Verse 3 A B C You fuckin slut i knew youd sell out A just like theyve all done before A B C Your dirty habits are givin me doubts A but mainly cause your a whore A B C The life were leadin is bringin us down A your feet still cant touch the floor Fill 1
1-----------------------------------------------------------2------------8-8br-8--------------8-8br-8-------------------3-7~~~~-7-10---------10-7~~~-7-10---------10-7~~-10br-10~~~-4-----------------------------------------------------------5-----------------------------------------------------------6-----------------------------------------------------------
1-----------------------------------------------------------2------------8-8br-8--------------8-8br-8-------------------3-7~~~~-7-10---------10-7~~~-7-10---------10-7~~-10br-7~~~--4-----------------------------------------------------------5-----------------------------------------------------------6-----------------------------------------------------------
Fill 2
1-----------------------------------------------------------2------------8-8br-8--------------8-8br-8-------------------3-7~~~~-7-10---------10-7~~~-7-10---------10-7~~-10br-7~~~--4-----------------------------------------------------------5-----------------------------------------------------------6-----------------------------------------------------------
1--------------------------------------8--------------------2------------8-8br-8--------------8-8b---8r-6-8-6-10br-7107~3-7~~~~-7-10---------10-7~~~-7-10---------------------------4-----------------------------------------------------------5-----------------------------------------------------------6-----------------------------------------------------------
End solo
1-----------------------------------------------------------2------------8-8br-8-------------8-8br-8--------------------3-7~~~~-7-10---------10-7~~-7-10---------10-7~~-10br-7------4-----------------------------------------------------------5-----------------------------------------------------------6-----------------------------------------------------------
1----------------8----------------8---8---8-----------------2-----------8-8b---8r-6-8-6~~--8b---8b--8b--8r-6-8-6~~------3-7~~~-7-10-------------------------------------------------4-----------------------------------------------------------5-----------------------------------------------------------6-----------------------------------------------------------
1-----------------------------------------10----------------2--------------------------------------------8~-10br-8~-----3-------------------------7-9-9br-7-9-7~~-------------------4-----7-9-9br-7-9-7~~-7-9-----------------------------------5-7-9-------------------------------------------------------6-----------------------------------------------------------
1------------------------8~-10br-10-8-10-8-10-8~------2-10p8--------------8-10------------------------------3------9br-7-9br-7~-----------------------------------4-----------------------------------------------------5-----------------------------------------------------6-----------------------------------------------------
1-10-8------------------------------------------------------2------10-9-8h9p8-------------------------------8-10-10br-8-3-----------------9-7-9-7---7-------7-9-9br-7-9-------------4-------------------------9---9-7-9-------------------------5-----------------------------------------------------------6-----------------------------------------------------------
1-----10-----10-----10--------------------------------------2-10b----10b----10b----10r-10p8-----------------------------3-------------------------------9br-7-9-7~~-----------------4-----------------------------------------------------------5-----------------------------------------------------------6-----------------------------------------------------------
Order: Verse 1 chorus fill 1 verse 2 chorus fill 2 verse 3 chorus end solo
Tap to rate this tab
 
# A B C D E F G H I J K L M N O P Q R S T U V W X Y Z