Stephen Stills - Black Queen tab

                                  Black Queen

                               ? by Stephen Stills

Guitar 85 bpm

tabbed by Louis, http://www.louis-and-friends.de

The studio version of this song is recorded with Open D ( D A D G B D )

For the 4 Way Street version it goes with tuning as noted. Tabbed is the studio
recording by the way ;o)
For the lyrics see your booklet of your copy of the 4 Way Street album ! 


C#||-------------------|--------------------------|--6~------------------------|A#||-------------------|-------------6~-----------|----6-----------------------|F#||-------------------|----5-7--5------7---------|------7---------------------|C#||-----------------0/|--7--------7--------------|--------7\5-3-5-3-0---------|G#||-------------------|--------------------------|----------------------------|C#||-------------------|-------------------0------|---------------------0------|
------------------------------|--------------------------------|--------------6~-6~-----------|--8--8-8b-6-6-------------------|----5-----5-7-------7---------|--------------7-----------------|--7---5-7---------------------|----------------7-5-3-5-3-0-----|------------------------------|--------------------------------|-----------------------0------|----------------------------0---|
-----------------------|--------------------------|--------------------------|-------------1---------|--------------------------|--------------------------|-------------2---------|--------------------------|--------------------------|--------0----0---------|--5--5--5------3~---------|--5--5--5------3~---------|--3--------------------|--3--3--3p0-------5-------|--3--3--3p0-------5-------|----3~----0------------|------------5----------0--|------------5----------0--|
--------------------------|-----------------------|--------------------------|--------------------------|-----------------------|--------------------------|--------------------------|-----------------------|--------------------------|--5--5--5--------------3~-|--------3~-0-----------|--5--5--5------3~---------|--3--3--3p0---------------|--5--3-----------------|--3--3--3p0-------5-------|------------3~---4--5-----|----------------0------|------------5----------0--|
--------------------------|---------------------------|-----------------------|--------------------------|---------------------------|-----------------------|--------------------------|---------------------------|-----------------------|--5--5--5------3~---------|--5--5--5------3~----5--3~-|----------3~-0---------|--3--3--3p0-------5-------|--3--3--3p0-------5--------|----5--3---------------|------------5----------0--|------------5--------------|----------------0------|
-----------|------------------------|-----------------------|-----------|------------------------|-----------------------|-----------|------------------------|-----------------------|-----------|--5-------3~------5h7---|----5--3~----3~---5----|--------3--|--3-----0----5----------|----------5------------|-----------|------------------------|-----------------------|
--------------------------|----------------------|-----------------------|--------------------------|----------------------|-----------------------|-----5--5--5--------------|----------------------|--5------5h7-----5h7---|--5--5--5--5--3~-------3~-|--0---------------5h7-|-----------------------|-----------------5--3-----|----------------------|-----------------------|--------------------------|-----0----------------|-----------------------|
-------------------------|----------------------|---------------------------|-----------6~---------8--|----6-----------------|---------------------------|--7--5--------7-----7----|---------7--5---------|---------------------------|--------7----------------|-----------------5----|--3-----5--0---------------|-------------------------|----------------------|-----5---------------------|-------------------------|----------------------|--------------0------------|
--0------------------------|---------------------------|--0-----1-----1------------|--------1-----1------------|--0-----2-----2------------|--------2-----2------------|--0-----0-----0----0-------|--0-----0-----0----0-------|---------------------2b----|---------------------2b----|-----0-----0-----0------3b-|-----0-----0-----0------3b-|
---------------------------|-----------------------------|--------1--1--1------------|-----1--1------1-1-----------|--------2--2--2------------|-----2--2------2-2-----------|--0-----0--0--0---------0--|-----0--0-0----0-0---0-------|------------------2b-------|-----------------------2b----|-----0----------0----3b----|--0---------0------0------3b-|
---------------------------|-----------------------------|--------1-----1------------|--------1-1-1-1-1------------|--------2-----2------------|--------2-2-2-2-2------------|--0-----0-----0----0-------|--0-----0-0-0-0-0----0-------|---------------------2b----|-----------------------2b----|-----0-----0-----0------3b-|-----0-------------0------3b-|
---------------------------|-----------------------------|--------1--1--1------------|--------1--1-1-1-1-1-1-------|--------2--2--2------------|--------2--2-2-2-2-2-2-------|--0-----0--0--0----0-------|--0-----0--0-0-0-0-0-0-------|---------------------2b----|-----------------------2b----|-----0-----------0------3b-|-----0--------------------3b-|
-----------------------------|--3---3-3--3--5-5-5-----5--|--------0h1-1--1--1-1-1-1-1--|--6---6-6--6--3-3-3-----3--|--------2---2--2--2-2-2-2-2--|--5---5-5--5--0-0-0--x--0--|--0-----0---0--0--0-0-0-0-0--|--3---3-3--3--0-0-0-----0--|-----------------------------|--3---3-3--3--x-x-x-----x--|-----0-----------------------|--3---3-3--3--5-5-5-----5--|
--5------------------------|-----3-3-3--0-0-5--5-5-5--0-0-|--3-----1--1--1------------|-----4-4-4--0-0-3--3-3-3--0-0-|--0-----2--2--2------------|-----5-5-5--0-0-0--0-0-0--0-0-|--0-----0--0--0----0-------|--0--5-5-5--0-0-0--0-0-0--0-0-|--x------------------2b----|-----3-3-3--0-0-x--x-x-x--0-0-|--5--0-----------0------3b-|-----3-3-3------5--5-5-5------|
-----0-0-----------------0-0-|--3--3-3-3--0-0-5--5-5-5--0-0-|-----0-0-1-1-1-----------0-0-|--4--4-4-4--0-0-3--3-3-3--0-0-|-----0-0-2-2-2-----------0-0-|--5--5-5-5--0-0-0--0-0-0--0-0-|-----0-0-0-0-0--------0--0-0-|--5--5-5-5--0-0-0--0-0-0--0-0-|----------------2b-----------|--3--3-3-3--0-0-x--x-x-x--0-0-|--0----------------3b--------|--3--3-3-3------5--5-5-5------|
-----0-0-----------------0-0-|--3--3-3-3--0-0-5--5-5-5--0-0-|-----0-0-1-1-1-----------0-0-|--4--4-4-4--0-0-3--3-3-3--0-0-|-----0-0-2-2-2-----------0-0-|--5--5-5-5--0-0-0--0-0-0--0-0-|-----0-0-0-0-0--------0--0-0-|--5--5-5-5--0-0-0--0-0-0--0-0-|----------------2b-----------|--3--3-3-3--0-0-x--x-x-x--0-0-|--0----------------3b--------|--3--3-3-3------5--5-5-5------|
----------------------------|-----------------------------|---------------------6~-6-6-|--6h8-8-8-8--6~--------------|-----7---7-7--7p5-----------|----------------7---5--------|------------------7---------|----------------------7\5-3~-|----------------------------|-----------------------------|--0/------------------------|-----------------------------|
------------------------|----------------------|-----------------------------|------------------------|----------------------|-----------------------------|------------------------|----------------------|-----------------------------|------------------3~----|----------------------|-----------------3~----5-5h7-|----3----5-----------5--|-----5-5-5------------|--3--3-3-3h5-5-5-------------|------------3~-5--------|--0--0-0-0------------|-----------------------------|
----------------------------|---------------------------|----------------6~----6-6h8-|--8--8--6~-----------------|----------5--7--------------|-----------7--5h7---5--5-5-|--7-7-7p5-------------------|---------------------------|----------------------------|---------------------------|----------------------------|---------------------------|
--------------------------|----------------------------|--------------------------|----------------------------|-----5--------------------|---------5--7-5-7-----5-5h7-|--7------7-5--3~----5-5h7-|--7--7-7--------------------|--------------------------|----------------------------|--------------------------|----------------------------|
----------------------------|-----------------------|------------------------|--------6---6~------8-8-8-8-|--6~--------------6~---|------------------------|---7-7----7----7------------|-------7----5--7-------|--7--5------------------|----------------------------|-----------------------|----------5--3~---------|----------------------------|-----------------------|------------------3--5--|----------------------------|-----------------------|------------------------|
---------------------------|--0------------------------|---------------------------|--0-----1-----1------------|---------------------------|--0-----2-----2------------|--3~-----------3~-0--------|--0-----0-----0----0-------|-----5---------------2b----|---------------------2b----|--------3--4-5----------3b-|-----0-----0-----0------3b-|
---------------------------|---------------------------|--------1-----1------------|--------1--1--1------------|--------2-----2------------|--------2--2--2------------|--0-----0-----0----0-------|--0-----0--0--0---------0--|---------------------2b----|------------------2b-------|-----0-----0-----0------3b-|-----0----------0----3b----|
-----------------------------|---------------------------|-----1--1------1-1-----------|--------1-----1------------|-----2--2------2-2-----------|--------2-----2------------|-----0--0-0----0-0---0-------|--0-----0-----0----0-------|-----------------------2b----|---------------------2b----|--0---------0------0------3b-|-----0-----0-----0------3b-|
-----------------------------|---------------------------|--------1-1-1-1-1------------|--------1--1--1------------|--------2-2-2-2-2------------|--------2--2--2------------|--0-----0-0-0-0-0----0-------|--0-----0--0--0----0-------|-----------------------2b----|---------------------2b----|-----0-------------0------3b-|-----0-----------0------3b-|
-----------------------------|-----------------------------|--------1--1-1-1-1-1-1-------|--------0h1-1--1--1-1-1-1-1--|--------2--2-2-2-2-2-2-------|--------2---2--2--2-2-2-2-2--|--0-----0--0-0-0-0-0-0-------|--0-----0---0--0--0-0-0-0-0--|-----------------------2b----|-----------------------------|-----0--------------------3b-|-----0-----------------------|
--3---3-3--3--5-5-5-----5--|--5------------------------|--6---6-6--6--3-3-3-----3--|--3-----1--1--1------------|--5---5-5--5--0-0-0--x--0--|--0-----2--2--2------------|--3---3-3--3--0-0-0-----0--|--0-----0--0--0----0-------|--3---3-3--3--x-x-x-----x--|--x------------------2b----|--3---3-3--3--5-5-5-----5--|--5--0-----------0------3b-|
-----3-3-3--0-0-5--5-5-5--0-0-|-----0-0-----------------0-0-|-----4-4-4--0-0-3--3-3-3--0-0-|-----0-0-1-1-1-----------0-0-|-----5-5-5--0-0-0--0-0-0--0-0-|-----0-0-2-2-2-----------0-0-|--0--5-5-5--0-0-0--0-0-0--0-0-|-----0-0-0-0-0--------0--0-0-|-----3-3-3--0-0-x--x-x-x--0-0-|----------------2b-----------|-----3-3-3------5--5-5-5------|--0----------------3b--------|
--3--3-3-3--0-0-5--5-5-5--0-0-|-----0-0-----------------0-0-|--4--4-4-4--0-0-3--3-3-3--0-0-|-----0-0-1-1-1-----------0-0-|--5--5-5-5--0-0-0--0-0-0--0-0-|-----0-0-2-2-2-----------0-0-|--5--5-5-5--0-0-0--0-0-0--0-0-|-----0-0-0-0-0--------0--0-0-|--3--3-3-3--0-0-x--x-x-x--0-0-|----------------2b-----------|--3--3-3-3------5--5-5-5------|--0----------------3b--------|
--3--3-3-3--0-0-5--5-5-5--0-0-|--0----------------------|--4--4-4-4--0-0-3--3-3-3--0-0-|--1----------------------|--5--5-5-5--0-0-0--0-0-0--0-0-|--2----------------------|--5--5-5-5--0-0-0--0-0-0--0-0-|--0--------------0-------|--3--3-3-3--0-0-x--x-x-x--0-0-|--0----0--2b-------------|--3--3-3-3------5--5-5-5------|--0----------3-----3~-5--|
--------------------------|-------------------------|--------------------------|-------------------------|--------------------------|--------5----------------|--3~-0-------3~-0---------|--5h7----------5h7p5--3--|-------3------------------|-------------------------|---------3h5-------0------|-------------------------|
----------------------------|----------------------------|----------------------------|----------------------------|----------------------------|----------------------------|---0-------3~-0---------3h5-|--5--5--5--5-5-5-5-3----5-5-|-----3--5-------------------|----------------------------|-----------------0-0-0------|----------------------------|
----------------------------|--------------------------------|----------------------------|--------------------------------|----------------------------|----------------------5---5-5h7-|--5--5-5-5-5-5--5--3------3-|--3h5-5-5-5/7-7-7-7p5-----------|----------------------5-----|--------------------------------|----------------------------|--------------------------------|
---------------------------|---------------------------|------6~-------------------|--8-8-8-8-8-8-8--6~------6-|--7-7----7---------7-7-7-7-|--------------------7--7---|---------------------------|---------------------------|---------------------------|---------------------------|----------------0----------|---------------------------|
-------------------------------|-----------------------------|--6h8-8-8-8-8-8-8-8b-8--6--6-6-|--6h8-8-8-8--8-8-8--6~-------|-------------------------------|-----------------------7--5--|-------------------------------|-----------------------------|-------------------------------|-----------------------------|-------------------------------|-----------------------------|
-------------------------|----5-5-5-5--5-5-5h7-------|-------------6~----------|---------------------------|---5-5h7-7-7------7------|--7------------------------|-------------------------|---------------------------|-------------------------|---------------------------|-------------------------|---------------------------|
--7--7-7-7--7-7-7h10---10----|--10--10-10-12----10--10-10-9--7-7-|-----------------------------|-----------------------------------|-----------------------------|-----------------------------------|-----------------------------|-----------------------------------|-----------------------------|-----------------------------------|-----------------------------|-----------------------------------|
--7-7-9----9--9--9--|--9----7----------------|----------------------------|------8----8--8--8--|--8----6----8--6--------|--8-8-6------1--------------|--------------------|--------------------5h7-|--7---5--0-0-0----0---------|--------------------|------------------------|---------------------3~-0-0-|--------------------|------------------------|----------------------------|--------------------|------------------------|-------------0--------------|
------------------------------|------------------------|--------0----0----0----|------------------------------|------------------------|--------0----0----0----|------4-4---------------------|------------------------|--------0----0----0----|------5-5-3-0-0---------0-3-5-|--3~-------0------------|--3~-0--0----0----0----|--3h5-------------------------|------------------------|--------0----0----0----|----------------0-4-5-6-------|---------0---3~---4--5--|--------0----0----0----|
--0------------------------|---------------------------|--0-----1-----1------------|--------1-----1------------|--0-----2-----2------------|--------2-----2------------|--0-----0-----0----0-------|--0-----0-----0----0-------|---------------------2b----|---------------------2b----|-----0-----0-----0------3b-|-----0-----0-----0------3b-|
--0------------------------|---------------------------|--0-----1-----1------------|--------1-----1------------|--0-----2-----2------------|--------2-----2------------|--0-----0-----0----0-------|--0-----0-----0----0-------|---------------------2b----|---------------------2b----|-----0-----0-----0------3b-|-----0-----0-----0------3b-|
---------------------------|-----------------------------|--------1--1--1------------|-----1--1------1-1-----------|--------2--2--2------------|-----2--2------2-2-----------|--0-----0--0--0---------0--|-----0--0-0----0-0---0-------|------------------2b-------|-----------------------2b----|-----0----------0----3b----|--0---------0------0------3b-|
---------------------------|-----------------------------|--------1-----1------------|--------1-1-1-1-1------------|--------2-----2------------|--------2-2-2-2-2------------|--0-----0-----0----0-------|--0-----0-0-0-0-0----0-------|---------------------2b----|-----------------------2b----|-----0-----0-----0------3b-|-----0-------------0------3b-|
---------------------------|-----------------------------|--------1--1--1------------|--------1--1-1-1-1-1-1-------|--------2--2--2------------|--------2--2-2-2-2-2-2-------|--0-----0--0--0----0-------|--0-----0--0-0-0-0-0-0-------|---------------------2b----|-----------------------2b----|-----0-----------0------3b-|-----0--------------------3b-|
-----------------------------|--3---3-3--3--5-5-5-----5--|--------0h1-1--1--1-1-1-1-1--|--6---6-6--6--3-3-3-----3--|--------2---2--2--2-2-2-2-2--|--5---5-5--5--0-0-0--x--0--|--0-----0---0--0--0-0-0-0-0--|--3---3-3--3--0-0-0-----0--|-----------------------------|--3---3-3--3--x-x-x-----x--|-----0-----------------------|--3---3-3--3--5-5-5-----5--|
--5------------------------|-----0-0-0-0-0-0----------------|--3-----1--1--1------------|-----1-1-1-1-0-0----------------|--0-----2--2--2------------|-----2-2-2-2-0-0----------------|--0-----0--0--0----0-------|-----0-0-0-0-0-0---0-3~-3-3-0---|--x------------------2b----|------------------------------0-|--5--0-----------0------3b-|--0--------------0--------------|
----------------3--3-3-5--0-0-|-----------------------------------|-----0h1--------4--4-4-3--0-0-|-----0h1-1-0-0p-0~--0-0p-----------|-----2----------5--5-5-0--0-0-|-----2---2-0-0p-0~--0-0p-----------|-----0---3-3-3--5--5-5-0--0-0-|-----0---0-0-0--2p0-0-0p-----------|---------3-3-3--3--3-3-x--0-0-|--0-----------------2--------------|--0------3-3-3--3--3-3-5------|------------------------5-7-5-3-5--|
--------------------------------|--------------------------|-----------------|-----0h1-1-0-0------------------|--------------------------|-----------------|-----2---2-0-0------------------|----------5h7p-------5----|--5--------------|-----0---0-0-0------------------|--5h7-7-7--------------7--|------5-3--------|-------------3h-5-5-5-5-5-7~5-5-|--------------------------|-----------------|--0-----------------------------|--------------------------|-----------------|
------------------------|--------------------------|---------9-----------------|------------------------|--------------6-----6-6h8-|--8-8-8----6---------------|------------------------|--------5h7---------------|-------------7-------------|---------------3--------|--5h7---------------------|---------------------------|--3--3-3-3h5------------|--------------------------|---------------------------|------------------------|--------------------------|------------------0--------|
----------------15~-----------------|------------------------|--13h15---13h15-----13----13h15-12--|--6~--------------------|--------------------------------12--|-------5~---------------|------------------------------------|------------5--7--5--3~-|------------------------------------|------------------------|--------------------0---------------|------------------------|
------------------------|-------------------------0-0-0-|------------------------|-------------------------0-0-0-|------------------------|-------------------------0-0-0-|-------------------3~---|-------------5-3---------0-0-0-|--5--3--0---------------|---5-5-3-5-5-----5-3-----------|-------------4--5-------|---------------------0---------|
-------------------------|-------------------------|------------------||----------7--------------|-------------------------|------------------||--------5--------5-------|-----------------7-------|------------------||--5h7-7h--------------7--|--6--5--3~---------------|------------------||-------------------------|-----------5-------------|------------------||-------------------------|--------------0-------0--|------------------||
Tap to rate this tab
 
# A B C D E F G H I J K L M N O P Q R S T U V W X Y Z