Steve Hackett - A Bed A Chair And A Guitar tab

                           A BED, A CHAIR AND A GUITAR
                          As recorded by Steve Hackett
                         (From the 1986 Album MOMENTUM)

Music by Steve Hackett
Arranged by SH


Classical Style Q.=90 6/8 3/8 Gtr I||---------|---------0-1-|-0---0----|---------0-1-|-0---0---|-5---|||o-----0--|-1-0-1-3-----|--------3-|-1-0-1-3-----|---------|-----|||---------|-------------|----------|-------------|---------|-----|||---------|-------------|----------|-------------|---------|-----|||o--------|-0-----2-----|-3---2----|-0-----2-----|-3---2---|-----|||---------|-------------|----------|-------------|---------|-----|
H.=H 6/8|-3-1-0-1-0---|-0-----------|-------------|-------------|-------|||-----------3-|---3-1-3-0---|---0-1-1p0---|-------0-----|------o|||-------------|-----------0-|-2-----------|---0-2---2-1-|-2-----|||-2-----0-----|-------------|-----------2-|-3-----------|-------|||-------------|-3-----2-----|-------------|-------------|-0----o|||-------------|-------------|-1-----0-----|-1-----0-----|-------||
Folk Style Q=100 4/4||--------------0-2h3p2---0-----|||o---------0h1---------3-----0-|||----2p0h2-----------------0---|||------------------------------|||o-0---------------------------|||--------------------0---------|
1. 2.|-------------0-5p3p2-0----||-------------0-7p5p3-0----||---------0h1-----------0-o||---------0h1--------------||---2p0h2------------------||---2p0h2------------------||--------------------------||--------------------------||-0-----------------------o||-0------------------------||---------------0-----3----||---------------0-------3--|
|-------------0-----|-----------5p3p2-0---||-----0-1-0-----0---|---5p3-6-----------0-||---2-------2-----0-|---------------------||-------------------|---------0-----------||-0-----------------|-3-------------------||-----------1---3---|-----------0-----3---|
|-------------0-----|---------------2-------3---||-----0-1-0-----0---|---5p3-6-----1---1---0---0-||---2-------2-----0-|---------------------------||-------------------|---------0-1-------2-------||-0-----------------|-3-------------------------||-----------1---3---|---------------------------|
6/4|-----0-----------------0---0---x--||---0---0-------4-----4-----0---x--||-------------2-----2-------1------||-----------4-----4----------------||-3-------2------------------------||-------------------------0--------|
4/4|-------------0-2h3p2---0-----|-------------0-5p3p2-0----||---------0h1---------3-----0-|---------0h1-----------0--||---2p0h2-----------------0---|---2p0h2------------------||-----------------------------|--------------------------||-0---------------------------|-0------------------------||-------------------0---------|---------------0-----3----|
|-------------0-----|-----------5p3p2-0---||-----0-1-0-----0---|---5p3-6-----------0-||---2-------2-----0-|---------------------||-------------------|---------0-----------||-0-----------------|-3-------------------||-----------1---3---|-----------0-----3---|
H.=H|-------------0-----|------------7p=5---0--|||-------1-0-----0---|---5p3-6---------8-5--|||---4p2-----2-----0-|----------------------|||-------------------|----------------------|||-0-----------------|-3--------------------|||-----------1---3---|---------0-(0)--------||
Q=80 Jazz Style Q.=60 9/8|-10-10p7-7S4-4-^3----||---------------------|--------------3-2----|||---------------^3----||o---1----1-----3-0---|---1----1---------3-o|||---------------^1----||-------------------0-|--------------2---0--|||---------------^2----||----2----2-----4-----|---2----2------------|||---------------------||o-0----0-----0-------|-0----0-----0-------o|||---------------------||---------------------|---------------------||
|-----------------|--------------------||---6---5---9---8-|---9/-8---6---9---8-||---5---5---8---7-|---8/-7---5---8---7-||---4---4---7---6-|---7/-6---4---7---6-||-0---0-----------|-0------0-----------||---------0---0---|------------0---0---|
4/4|-------------------------|--------------------------||---3-3---3-3---3-3---3-3-|---4-4---4-4---4-4---4-4--||---2-2---2-2---2-2---2-2-|---3-3---3-3---3-3---3-3--||---1-1---1-1---1-1---1-1-|---2-2---2-2---2-2---2-2--||-------------2-----------|-------3-----------3------||-0-----2-----------2-----|-3-----------3------------|
2/4 9/8|-----------------|------||---------------------|--------------3-2----|||-^5--5-5-5-^8----|-6----||o---1----1-----3-0---|---1----1---------3-o|||-^5--------^7----|------||-------------------0-|--------------2---0--|||-^4--------^6----|------||----2----2-----4-----|---2----2------------|||-^5--------^7----|------||o-0----0-----0-------|-0----0-----0-------o|||-----------^0----|------||---------------------|---------------------||
|---5---------2h3p2---0-2-|---5-------2h3p2-----0-||---5---5---3-----3-3-3---|---5---5-------3-3-3---||---5---5---4---------2---|---5---5-------0---2---||-0---0---0-------0---0---|-0---0-------------0---||-------------------------|---------------3-------||-------------------------|---------0-------------|
|--------------------|--------------3-2-----||---1----1-----3-0---|---1----1---------3---||------------------0-|--------------2---0---||---2----2-----4-----|---2----2-------------||-0----0-----0-------|-0----0-----0---------||--------------------|----------------------|
4/4|------------------------|-------------------------||---13/-12---11---10---8-|---3-3---3-3---3-3---3-3-||---12/-11---10----9---7-|---2-2---2-2---2-2---2-2-||---11/-10----9----8---6-|---1-1---1-1---1-1---1-1-||-0-------------0--------|-------------2-----------||----------0---------0---|-0-----2-----------2-----|
2/4|-------------------------|-------------------|------||---4-4---4-4---4-4---4-4-|-^5-^5-^5-^5-^8----|-6----||---3-3---3-3---3-3---3-3-|-^5-^5-^5-^5-^7----|------||---2-2---2-2---2-2---2-2-|-^4-^4-^4-^4-^6----|------||-------3-----------3-----|-^5-^5-^5-^5-^7----|------||-3-----------3-----------|-------------^0----|------|
4x 4x||------0-----0-----0-----0--||-||------0-----0-----0-----0--||||o---0-----0-----0-----0---o||-||o---0-----0-----0-----0---o||||---------------------------||-||--------------5-----4------||||--------2-----3-----0------||-||--------3------------------||||o-0-----------------------o||-||o-0-----------------------o||||---------------------------||-||---------------------------||
|-(0)----|------12-------12-------12----||--------|---12-------12-------12-------||--------|------------------11----------||--------|---------10----------------10-||--------|-0----------------------------||--------|------------------------------|
|------10------10------10---|-----7-----7-----7-----||---10------10------10------|---7-----7-----7-------||-----------------9---------|-------------6---------||---------8---------------8-|-------6-----------6---||-0-------------------------|-0---------------------||---------------------------|-----------------------|
|-----4-----4-----|---7---7---7---7-||---7-----7-------|-----------------||-6-----6-----6---|-------------9---||---------------6-|---------9-------||-----------------|-0---9-----------||-----------------|-----------------|
H.=H|---7---7---7---7-|---7---7---7---7-|------*||-9---------------|-----------------|-9----*||-----9-----------|-------------9---|------*||---------9-------|---------9-------|------*||-------------9---|-0---9-----------|------*||-----------------|-----------------|------*|
Tap to rate this tab
 
# A B C D E F G H I J K L M N O P Q R S T U V W X Y Z