Steve Vai - Down Deep Into The Pain tab

       
Intro Moderately Q=100 N.C. 4/4 Gtr II|------------||---------------||------------||------15-------||------------||------17b19----||------------||---------------||------------||---------------||------------||---------------|
|
| Gtr I|------------||---------------||------------||---------------||------------||---------------||------------||---------------||------------||---------------||-------13\--||-0-----0-------|
E5|---------------------------------------|------------------------||-14----14-----(14)--12-----(12)--------|-(12)----------17-------||-16b18-16b18==(16)r-14b16==(14)--------|-(14)-(14)r\---19b21----||---------------------------------------|------------------------||---------------------------------------|------------------------||---------------------------------------|------------------------|
|
| ~~~~~|---------------------------------------|------------------------||---------------------------------------|------------------------||---------------------------------------|------------------------||--9-----9------(9)---9------(9)---(9)\-|------------------------||--7-----7------(7)---7------(7)---(7)\-|----------------7-------||---------------------------------------|---0--------------------|
N.C.|-----------------------------------||-13-------15----13-----(13)--15----||-15b17----17b19-15b17==(15)r-17b19-||-----------------------------------||-----------------------------------||-----------------------------------|
|
| ~~~~~|-----------------------------------||-----------------------------------||-----------------------------------||-----------------------------------||--3--------7-----6------(6)---5----||-----------------------------------|
|-------------------|----------------------------------||-15-------15-------|-14-------12----14-----(14)-15----||-17b19----17b19----|-16b18----14b16-16b18==(16)-17b19-||-------------------|----------------------------------||-------------------|----------------------------------||-------------------|----------------------------------|
|
| ~~~~~~~~~~~|-------------------|----------/7-----9------(9)-10----||-------------------|----------------------------------||-------------------|----------------------------------||-------------------|----------------------------------||-------------------|----------------------------------||--3--------3-------|--3-------------------------------|
|-------------------|---------------------------------|||-16-------13-------|-13-----13-----------------------|||-18b20----15b17----|-15b17--15b17--------------------|||-------------------|---------------------------------|||-------------------|---------------/x\---------------|||-------------------|---------------/x\-15\-----------||
|
| ~|-------------------|---------------------------------|||-------------------|---------------------------------|||-------------------|---------------------------------|||-------------------|---------------------------------|||-------------------|---------------------------------|||--3--------3-------|--2------1----------0--1-(1)-2-3-||
Double-time Q=200 A5 N.C. ~~~~~~~~~~|-10--10-10-10-10-10-10-10-|-10-8-----------------||-10--10-10-10-10-10-10-10-|-10-8---10-(10)-------||--------------------------|----------------------||--------------------------|----------------------||--------------------------|----------------------||--------------------------|----------------------|
|
| ~~~ PM ~~~|--------------------------|----------------------||--------------------------|----------------------||------2--2-----2----------|----------------------||------2--2-----2----------|----0-----------------||------0--0-----0----------|--3---3--2---0--------||-(3)--------3-------------|----------------3-0-3-|
A5 ~~~~~~ ~~~~|---------12b13---(12)-(12)------||-(10)-10---------------------10-||--------------------------------||--------------------------------||--------------------------------||--------------------------------|
|
|~~~~~~ PM|--------------------------------||--------------------------------||-------2--2--------2-------2----||-------2--2--------2-------2----||-------0--0--------0-------0----||--(3)----------3----------------|
N.C. ~~~~~|-12b15r(12)-----(12)b15==(12)r------------||------------------------------------------||-----------------------------------xs=====||-----------------------------------xs=====||------------------------------------------||------------------------------------------|
|
|------------------------------------------||------------------------------------------||-----------------------------------5b5.5==||---------------------------5---6-7--------||--3------4--5-5s==7-----------------------||------------------------------------------|
A5 N.C.|------10b12-8----[8]-(8)/------|-10b12r(10)p8----[8]-(8)-(8)/------||--------------10---------------|--------------10-------------------||--x\---------------------------|-----------------------------------||--x\---------------------------|-----------------------------------||-------------------------------|-----------------------------------||--------------------------x\---|--------------------------------x\-|
|
| PM ~~|-------------------------------|-----------------------------------||------(0)----------------------|-----------------------------------||-(5)r-------------2-------2--2-|-----------------------------------||------------------2-------2--2-|---------0-------------------------||------------------0-------0--0-|--3------------3--2---0------------||------------3------------------|--------------------------3---0-3--|
A5 D5 A5 Ab5 G5 A5 AbG5 ~~~~ ~~~~~~~~~~~~~|----------------------------------|-------------------------------------||-13b15====(13)---13r-13-10--------|----------------------------------10-||---------------------------12pb14r|=(12)b14==(12)------(12)---12r\------||----------------------------------|-------------------------------------||----------------------------------|-------------------------------------||----------------------------------|-------------------------------------|
|
| ~~~~~~ ~~~~~~|----------------------------------|-------------------------------------||----------------------------------|-------------------------------------||--------2---2-----2---------------|-------------------------------------||--------2---2-----2------7S=======|==14-------13--12\-------------------||--------0---0-----0------5S=======|==12-------11--10\----7--6--5--------||-(3)-----------3------------------|----------------------5--4--3---3----|
A5 T T T|--------10h15-17p15p10-----------17s20-(20)b22-(20)p=||-10h=13----------------h13-17p13---------------------||-----------------------------------------------------||-----------------------------------------------------||-----------------------------------------------------||-----------------------------------------------------|
|
|~~~~~ PM|-----------------------------------------------------||-----------------------------------------------------||---------2-----2------------2------------------------||---------2-----2------------2------------------------||---------0-----0------------0------------------------||-(3)-----------------3-------------------------------|
N.C. T T ~~~~|-10h15-17p==15p10------------------------------------||------------------h13-17p13p==10h13-(13)b15-(13)-----||-----------------------------------------------------||-----------------------------------------------------||-----------------------------------------------------||-----------------------------------------------------|
|
| ~~~|-----------------------------------------------------||-----------------------------------------------------||-----------------------------------------------------||----------0------------------------------------------||--3-----------------3-------2---------0--------------||----------------------------------------------3--0-3-|
A5 N.C. T T T T ~~|--------10h15-17p15p10--------------------------------------|---------------------------------||-10h=13------------------h13-17p13-17p15p10h13-17p13p10-----|---------------------------------||--------------------------------------------------------h14-|-12-12-12-12---12-12s14----------||------------------------------------------------------------|---------------------------------||------------------------------------------------------------|---------------------------------||------------------------------------------------------------|---------------------------------|
|
|~~~~~ PM|------------------------------------------------------------|---------------------------------||------------------------------------------------------------|---------------------------------||---------2-----2-----------------2--------------2-----------|--------------------------5b5.5==||---------2-----2-----------------2--------------2-----------|-------------------5--6-7--------||---------0-----0-----------------0--------------0-----------|--3--4-----5-5s=7----------------||-(3)-------------------3------------------------------------|---------------------------------|
A5 N.C. ~~~~~ ~~~~~|----------------------------|------------20-20------------||------20----20-----20-------|------------20-20-20---------||------19b20-19b21--19b21----|-19b21-(19)-------19b21------||----------------------------|-----------------------------||----------------------------|-----------------------------||----------------------------|-----------------------------|
|
| PM|------(0)-------------------|-----------------------------||----------------------------|-----------------------------||-(5)r---------------2-------|-----------------------------||--------------------2-------|---------0-------------------||--------------------0-------|--3----------3--2--0---------||-------------3--------------|------------------------3-0--|
A5 G5 D5 A5 G5 A5 N.C. \1/ \1/ \1/ /1______|----------20-20--------------20--------|-------20--------------20-20-20--------|||----20----20-20-20-----(20)--20-20-----|-(20)--20-20-----(20)--20-20-20-20-----|||-19-19b21-------19b21==(19)r----19b21==|=(19)r----19b21==(19)r----------19b21--|||---------------------------------------|---------------------------------------|||---------------------------------------|---------------------------------------|||---------------------------------------|---------------------------------------||
|
|-----3---------------------------3-----|--(3)----------------------------------|||-----3--------3-(3)--------------3-----|--(3)----------------------------------|||--2--0--------2-(2)------2-------0-----|--(0)---2------------------------------|||--2--0--------0-(0)------2-------0-----|--(0)---2------------------------------|||--0----------------------0-------------|--------0----------0----3--2--0--------|||-----3---------------------------3-----|--(3)----------------------------3b3.5-||
Verse 1 E / \7|---------------------|---------------------||-(20)----------------|---------------------||-(19)---------(19)---|-(19)----------------||---------------------|---------------------||---------------------|---------------------||---------------------|---------------------|
|
| PM---| PM PM|---------------------|---------------------||----------------x--x-|-------x-----x-------||----------------x--x-|-------x-----x-------||----------------x--x-|-------x-----x-------||------2-2--2---------|---2-----2-----------||--(3)-0-0--0---------|---0-----0-----3b3.5-|
|
| Gtr III|-^-7-----------------|--(7)----------------||-^-9-----------------|--(9)----------------||-^-9-----------------|--(9)----------------||-^-9-----------------|--(9)----------------||---------------------|---------------------||---------------------|---------------------|
D|-----------------|---------------------||-----------------|---------------------||-----------------|---------------------||-----------------|---------------------||-----------------|---------------------||-----------------|---------------------|
|
| PM---| PM PM|-----------------|---------------------||-------------x-x-|------x-----x--------||-------------x-x-|------x-----x--------||-------------x-x-|------x-----x--------||-----2-2--2------|--2-----2------------||-(3)-0-0--0------|--0-----0-----3b3.5--|
|
|-^5--------------|-(5)-----------------||-^7--------------|-(7)-----------------||-^7--------------|-(7)-----------------||-^7--------------|-(7)-----------------||-----------------|---------------------||-----------------|---------------------|
A Gtr I PM---| PM PM|-----------------|--------------------||-------------x-x-|------x-----x-------||-------------x-x-|------x-----x-------||-------------x-x-|------x-----x-------||-----2-2--2------|--2-----2-----------||-(3)-0-0--0------|--0-----0-----3b3.5-|
|
| Gtr III|-^5--------------|-(5)----------------||-^5--------------|-(5)----------------||-^6--------------|-(6)----------------||-^7--------------|-(7)----------------||-----------------|--------------------||-----------------|--------------------|
E/Ab PM---| PM|-----------------|-------------------------||-------------x-x-|------x------------------||-------------x-x-|------x------------------||-------------x-x-|------x---------[5]b5.5--||-----2-2--2------|--2-----2s5-6-7----------||-(3)-0-0--0------|--0----------------------|
|
|-^0--------------|-(0)---------------------||-^5--------------|-(5)---------------------||-^4--------------|-(4)---------------------||-^6--------------|-(6)---------------------||-----------------|-------------------------||-----------------|-------------------------|
E D PM PM PM PM---| PM PM|-----------------|--------------------|-----------------|---------------------||-------------x-x-|------x-----x-------|-------------x-x-|------x-----x--------||-------------x-x-|------x-----x-------|-------------x-x-|------x-----x--------||-(5)---------x-x-|------x-----x-------|-------------x-x-|------x-----x--------||-----7-2--2------|--2-----2-----------|-----2-2--2------|--2-----2------------||-------0--0------|--0-----0-----3b3.5-|-(3)-0-0--0------|--0-----0-----3b3.5--|
|
|-^7--------------|-(7)----------------|-^5--------------|-(5)-----------------||-^9--------------|-(9)----------------|-^7--------------|-(7)-----------------||-^9--------------|-(9)----------------|-^7--------------|-(7)-----------------||-^9--------------|-(9)----------------|-^7--------------|-(7)-----------------||-----------------|--------------------|-----------------|---------------------||-----------------|--------------------|-----------------|---------------------|
A E/Ab Dadd9 PM---| PM PM PM---| PM----| ~~|-----------------|--------------------|-----------------|---------------------||-------------x-x-|------x-----x-------|-------------x-x-|---------------------||-------------x-x-|------x-----x-------|-------------x-x-|---------------------||-------------x-x-|------x-----x-------|-------------x-x-|--7--6-5-------------||-----2-2--2------|--2-----2-----------|-----2-2--2------|---------7-6-5----5--||-(3)-0-0--0------|--0-----0-----3b3.5-|-(3)-0-0--0------|---------------7-----|
|
|-^5--------------|-(5)----------------|-^0--------------|-(0)-------------^0--||-^5--------------|-(5)----------------|-^5--------------|-(5)-------------^3--||-^6--------------|-(6)----------------|-^4--------------|-(4)-------------^2--||-^7--------------|-(7)----------------|-^6--------------|-(6)-------------^4--||-----------------|--------------------|-----------------|---------------------||-----------------|--------------------|-----------------|---------------------|
~~~PM---| PM PM|-------------0--|--------------------||-------------0--|------x-----x-------||----------------|------x-----x-------||----------------|------x-----x-------||-(5)-2-2--2-----|--2-----2-----------||-----0-0--0-----|--0-----0-----3b3.5-|
|
|-(0)------------|-(0)----------------||-(3)------------|-(3)----------------||-(2)------------|-(2)----------------||-(4)------------|-(4)----------------||----------------|--------------------||----------------|--------------------|
PM---| PM PM|-----------------|-----------------------||-------------x-x-|----x---------x--------||-------------x-x-|----x---------x--------||-------------x-x-|----x---------x--------||-----2-2--2------|-2----2----------------||-(3)-0-0--0------|-0----0---------3b3.5--|
|
|-(0)-0-----------|-2---------------------||-(3)------3------|------------3----------||-(2)---------2---|------2-(2)------------||-(4)-------------|-----------------------||-----------------|-----------------------||-----------------|-----------------------|
E/Ab Dadd9 PM---| PM PM PM---||-----------------|--------------------|-----------------|---------------------||-------------x-x-|------x-----x-------|-------------x---|---------------------||-------------x-x-|------x-----x-------|-------------x---|---------------------||-------------x-x-|------x-----x-------|-------------x---|------------------5--||-----2-2--2------|--2-----2-----------|-----2-2--2------|-------5--6--7-------||-(3)-0-0--0------|--0-----0-----3b3.5-|-(3)-0-0--0----3-|-5-6-7---------7-----|
|
|-^0--------------|-(0)----------------|-(0)-0-----------|-4---------------^0--||-^5--------------|-(5)----------------|-(5)------5------|-------------5---^3--||-^4--------------|-(4)----------------|-(4)---------4---|-------4-(4)-----^2--||-^6--------------|-(6)----------------|-(6)-------------|-----------------^4--||-----------------|--------------------|-----------------|---------------------||-----------------|--------------------|-----------------|---------------------|
PM-| PM PM|-----0-------0--|--------------------||-----0-------0--|------x-----x-------||----------------|------x-----x-------||-(5)------------|------x-----x-------||-------2--2-----|--2-----2-----------||-------0--0-----|--0-----0-----3b3.5-|
|
|-(0)------------|-(0)----------------||-(3)------------|-(3)----------------||-(2)------------|-(2)----------------||-(4)------------|-(4)----------------||----------------|--------------------||----------------|--------------------|
PM---| PM PM|-----------------|-----------------------||-------------x-x-|----x---------x--------||-------------x-x-|----x---------x--------||-------------x-x-|----x---------x--------||-----2-2--2------|-2----2----------------||-(3)-0-0--0------|-0----0---------3b3.5--|
|
|-(0)-0-----------|-2---------------------||-(3)------3------|------------3----------||-(2)---------2---|------2-(2)------------||-(4)-------------|-----------------------||-----------------|-----------------------||-----------------|-----------------------|
E/Ab PM---| PM PM|-----------------|--------------------||-------------x-x-|------x-----x-------||-------------x-x-|------x-----x-------||-------------x-x-|------x-----x-------||-----2-2--2------|--2-----2-----------||-(3)-0-0--0------|--0-----0-----3b3.5-|
|
|-^0--------------|-(0)----------------||-^5--------------|-(5)----------------||-^4--------------|-(4)----------------||-^6--------------|-(6)----------------||-----------------|--------------------||-----------------|--------------------|
PM---||-----------------|---------------------|||-------------x-x-|---------------------|||-------------x-x-|-x\--x\----x\---x\---|||-------------x-x-|-x\--x\----x\---x\---|||-----2-2--2------|-x\--x\----x\---x\---|||-(3)-0-0--0------|---------------------||
|
|-(0)-0-----------|-4-------------------|||-(5)------5------|--------------5------|||-(4)---------4---|--------4-(4)--------|||-(6)-------------|---------------------|||-----------------|---------------------|||-----------------|---------------------||
Pre-Chorus 1 C5 C#5D5 C#5C5 C#5 D5 C#5C5 C#5D5 C#5 Gtr I|---------------------|-------------------------||---------------------|-------------------------||---------------------|-------------------------||-10-11-12--11-10--11-|-(11)-12-11-10-11-12-11--||-10-11-12--11-10--11-|-(11)-12-11-10-11-12-11--||--8--9-10---9--8---9-|--(9)-10--9--8--9-10--9--|
B5C5 C#5D5 C#5C5 D#5 D5 C#5C5 C#5D5|----------------------|----------------------||----------------------|----------------------||----------------------|----------------------||-9-10-11-12-11-10--13-|-12-11-10--10-11-12---||-9-10-11-12-11-10--13-|-12-11-10--10-11-12---||-7--8--9-10--9--8--11-|-10--9--8---8--9-10---|
C5 C#5D5 C#5C5 C#5 D5 C#5C5 C#5D5 C#5|---------------------|-------------------------||---------------------|-------------------------||---------------------|-------------------------||-10-11-12--11-10--11-|-(11)-12-11-10-11-12-11--||-10-11-12--11-10--11-|-(11)-12-11-10-11-12-11--||--8--9-10---9--8---9-|--(9)-10--9--8--9-10--9--|
B5D5 C#5D5 C#5C5 D#5 D5 C#5C5 B5A#A5G#5 ~|----------------------|---------------------|||----------------------|---------------------|||----------------------|---------------------|||-9-10-11-12-11-10--13-|-12-11-10-9-8-7-6----|||-9-10-11-12-11-10--13-|-12-11-10-9-8-7-6----|||-7--8--9-10--9--8--11-|-10--9--8-7-6-5-4-3--||
Chorus 1 A5 N.C. A5 N.C. ~~~ PM ~~~~~~~~ PM|----------------|-----------------|-----------------|------------------------||----------------|-----------------|-----------------|------------------------||-----2-2---2----|-----------------|-----2-2---2--2--|-----------------5b5.5==||-----2-2---2----|---0-------------|-----2-2---2--2--|-----------5-6-7--------||-----0-0---0----|-3---3-2-0-------|-----0-0---0--0--|-3-4-5-5s7--------------||-(3)-----3------|-----------3-0-3-|-(3)-----3-------|------------------------|
A5 N.C. A5 D5 A5 G#5G5 A5G#G5 PM ~~~~~~~~ ~|--------------------|-----------------|-----------------|--------------------||------(0)-----------|-----------------|-----------------|--------------------||-(5)r--------2--2-2-|-----------------|-----2-2---2-----|--------------------||-------------2--2-2-|---0-------------|-----2-2---2--7S=|=14-13-12\----------||-------------0--0-0-|-3---3-2-0-------|-----0-0---0--5S=|=12-11-10\--7-6-5---||----------3---------|-----------3-0-3-|-(3)-----3-------|------------5-4-3-3-|
Verse 2 E D Gtr I PM---| PM PM PM---| PM PM|-----------------|--------------------|-----------------|---------------------||-------------x-x-|------x-----x-------|-------------x-x-|------x-----x--------||-------------x-x-|------x-----x-------|-------------x-x-|------x-----x--------||-------------x-x-|------x-----x-------|-------------x-x-|------x-----x--------||-----2-2--2------|--2-----2-----------|-----2-2--2------|--2-----2------------||-(3)-0-0--0------|--0-----0-----3b3.5-|-(3)-0-0--0------|--0-----0-----3b3.5--|
|
| Gtr III|-^7--------------|-(7)----------------|-^5--------------|-(5)-----------------||-^9--------------|-(9)----------------|-^7--------------|-(7)-----------------||-^9--------------|-(9)----------------|-^7--------------|-(7)-----------------||-^9--------------|-(9)----------------|-^7--------------|-(7)-----------------||-----------------|--------------------|-----------------|---------------------||-----------------|--------------------|-----------------|---------------------|
A E/Ab PM---| PM PM PM---| PM ~~|-----------------|--------------------|-----------------|-------------------||-------------x-x-|------x-----x-------|-------------x-x-|------x---------8--||-------------x-x-|------x-----x-------|-------------x-x-|------x-4s7-8-9----||-------------x-x-|------x-----x-------|-------------x-x-|------x---------5--||-----2-2--2------|--2-----2-----------|-----2-2--2------|--2-------5-6-7----||-(3)-0-0--0------|--0-----0-----3b3.5-|-(3)-0-0--0------|--0----------------|
|
|-^5--------------|-(5)----------------|-^0--------------|-(0)---------------||-^5--------------|-(5)----------------|-^5--------------|-(5)---------------||-^6--------------|-(6)----------------|-^4--------------|-(4)---------------||-^7--------------|-(7)----------------|-^6--------------|-(6)---------------||-----------------|--------------------|-----------------|-------------------||-----------------|--------------------|-----------------|-------------------|
D ~~~ PM PM PM PM---| PM PM|--------------0--|------0-----0-------|-----------------|---------------------||-(8)----------0--|------0-----0-------|-------------x-x-|------x-----x--------||-----------------|--------------------|-------------x-x-|------x-----x--------||-(5)-------------|--------------------|-------------x-x-|------x-----x--------||-----------2-----|--2-----2-----------|-----2-2--2------|--2-----2------------||------3b4--0-----|--0-----0-----3b3.5-|-(3)-0-0--0------|--0-----0-----3b3.5--|
|
|-^7--------------|-(7)----------------|-^5--------------|-(5)-----------------||-^9--------------|-(9)----------------|-^7--------------|-(7)-----------------||-^9--------------|-(9)----------------|-^7--------------|-(7)-----------------||-^9--------------|-(9)----------------|-^7--------------|-(7)-----------------||-----------------|--------------------|-----------------|---------------------||-----------------|--------------------|-----------------|---------------------|
A PM---||-----------------|----------0---------||-------------x-x-|----------0---------||-------------x-x-|--------------------||-------------x-x-|--0tr2--------------||-----2-2--2------|--------------------||-(3)-0-0--0------|--------------3b3.5-|
|
|-^5--------------|-(5)----------------||-^5--------------|-(5)----------------||-^6--------------|-(6)----------------||-^7--------------|-(7)----------------||-----------------|--------------------||-----------------|--------------------|
E/Ab Dadd9 PM||-----------------|-----------------------------||-----------------|-----------------------------||-----------------|-----------------------------||-----------------|--7--5b7r(5)-----------------||-----2-2--2--2/--|-------------7-5b7r(5)----5--||-(3)-0-0--0------|-----------------------7-----|
|
|-^0--------------|-(0)---------------------^0--||-^5--------------|-(5)---------------------^3--||-^4--------------|-(4)---------------------^2--||-^6--------------|-(6)---------------------^4--||-----------------|-----------------------------||-----------------|-----------------------------|
Gtr II|------------------|---------------------||------------------|---------------------||-11---------------|-(11)----------------||------------------|---------------------||------------------|---------------------||------------------|---------------------|
|
| Gtr I| PM--| PM PM|-----0------------|---------------------||-----0--------x-x-|-------x-----x-------||--------------x-x-|-------x-----x-------||--------------x-x-|-------x-----x-------||-(5)---2-2-2------|---2-----2-----------||-------0-0-0------|---0-----0-----3b3.5-|
|
| Gtr III|-(0)--------------|--(0)----------------||-(3)--------------|--(3)----------------||-(2)--------------|--(2)----------------||-(4)--------------|--(4)----------------||------------------|---------------------||------------------|---------------------|
|------------------|----------------------------||------------------|----------------------------||-(11)---------9---|-11----11s13-(13)-----------||------------------|----------------------------||------------------|----------------------------||------------------|----------------------------|
|
| PM---| PM PM|------------------|----------------------------||--------------x-x-|-----x--------------x-------||--------------x-x-|-----x--------------x-------||--------------x-x-|-----x--------------x-------||------2-2--2------|--2--------2----------------||--(3)-0-0--0------|--0--------0----------3b3.5-|
|
|--(0)-0-----------|--2-------------------------||--(3)------3------|------------------3---------||--(2)---------2---|-----------2--(2)-----------||--(4)-------------|----------------------------||------------------|----------------------------||------------------|----------------------------|
E/Ab|------------------|---------------------||------------------|---------------------||-(13)-------------|-(13)----------------||------------------|---------------------||------------------|---------------------||------------------|---------------------|
|
| PM---| PM PM|------------------|---------------------||--------------x-x-|-------x-----x-------||--------------x-x-|-------x-----x-------||--------------x-x-|-------x-----x-------||------2-2--2------|---2-----2-----------||---3--0-0--0------|---0-----0-----3b3.5-|
|
|-^-0--------------|--(0)----------------||-^-5--------------|--(5)----------------||-^-4--------------|--(4)----------------||-^-6--------------|--(6)----------------||------------------|---------------------||------------------|---------------------|
Dadd9|----------------------|-----------------------------||----------------------|-----------------------------||-(13)---------13b14r==|=(13)-----13s9-(9)-----9s11--||----------------------|-----------------------------||----------------------|-----------------------------||----------------------|-----------------------------|
|
| PM---||----------------------|-----------------------------||---------------x------|-----------------------------||---------------x------|-----------------------------||---------------x------|--------------------------5--||------2-2--2----------|-------------5--6--7---------||--(3)-0-0--0--------3-|---5--6-7------------7-------|
|
|--(0)-0---------------|---4---------------------^0--||--(5)------5----------|-------------------5-----^3--||--(4)----------4------|-------------4-(4)-------^2--||--(6)-----------------|-------------------------^4--||----------------------|-----------------------------||----------------------|-----------------------------|
|-----------------|---------------------||-----------------|---------------------||-(11)------------|-(11)----------------||-----------------|---------------------||-----------------|---------------------||-----------------|---------------------|
|
| PM PM|------0-------0--|---------------------||------0-------0--|-------x-----x-------||-----------------|-------x-----x-------||--(5)------------|-------x-----x-------||--------2--2-----|---2-----2-----------||--------0--0-----|---0-----0-----3b3.5-|
|
|--(0)------------|--(0)----------------||--(3)------------|--(3)----------------||--(2)------------|--(2)----------------||--(4)------------|--(4)----------------||-----------------|---------------------||-----------------|---------------------|
|---------------------|-----------------------||---------------------|-----------------------||-13b14-13----11--9---|-7----6-(6)-4---4------||---------------------|-----------------------||---------------------|-----------------------||---------------------|-----------------------|
|
| PM---| PM PM|---------------------|-----------------------||-----------------x-x-|----x---------x--------||-----------------x-x-|----x---------x--------||-----------------x-x-|----x---------x--------||--------2-2---2------|-2----2----------------||-(3)----0-0---0------|-0----0---------3b3.5--|
|
|-(0)----0------------|-2---------------------||-(3)----------3------|------------3----------||-(2)-------------2---|------2-(2)------------||-(4)-----------------|-----------------------||---------------------|-----------------------||---------------------|-----------------------|
E/Ab|-----------------|--------------------||-----------------|--------------------||-(4)-------------|-(4)----------------||-----------------|--------------------||-----------------|--------------------||-----------------|--------------------|
|
| PM---| PM PM|-----------------|--------------------||-------------x-x-|------x-----x-------||-------------x-x-|------x-----x-------||-------------x-x-|------x-----x-------||-----2-2--2------|--2-----2-----------||-(3)-0-0--0------|--0-----0-----3b3.5-|
|
|-^0--------------|-(0)----------------||-^5--------------|-(5)----------------||-^4--------------|-(4)----------------||-^6--------------|-(6)----------------||-----------------|--------------------||-----------------|--------------------|
\5___/|-------------------|---------------------------|||-------------------|-(13)--13------------------|||-(4)---------------|-(12)--12------------------|||-------------------|-(10)--10------------------|||-------------------|---------------------------|||-------------16\---|---------------------------||
|
| PM---||-------------------|---------------------------|||--------------x--x-|---------------------------|||--------------x--x-|--------x\--x\----x\---x\--|||--------------x--x-|--------x\--x\----x\---x\--|||-----2-2--2--------|--------x\--x\----x\---x\--|||-(3)-0-0--0--------|---------------------------||
|
|-(0)-0-------------|--------4------------------|||-(5)------5--------|---------------------5-----|||-(4)----------4----|---------------4-(4)-------|||-(6)---------------|---------------------------|||-------------------|---------------------------|||-------------------|---------------------------||
Pre-Chorus 2 C5 C#5D5 C#5C5 C#5 D5 C#5C5 C#5D5 C#5 Gtr II|---------------------|-------------------------||-13-14-15--14-13--14-|-(14)-15-14-13-14-15-14--||-12-13-14--13-12--13-|-(13)-14-13-12-13-14-13--||-10-11-12--11-10--11-|-(11)-12-11-10-11-12-11--||---------------------|-------------------------||---------------------|-------------------------|
|
| Gtr I|---------------------|-------------------------||---------------------|-------------------------||---------------------|-------------------------||-10-11-12--11-10--11-|-(11)-12-11-10-11-12-11--||-10-11-12--11-10--11-|-(11)-12-11-10-11-12-11--||--8--9-10---9--8---9-|--(9)-10--9--8--9-10--9--|
B5 C5 C#5D5 C#5C5 D#5 C#5C5 C#5D5|-----------------------|------------------------||-12-13-14-15-14-13--16-|-(16)-14-13--13-14-15---||-11-12-13-14-13-12--15-|-(15)-13-12--12-13-14---||--9-10-11-12-11-10--13-|-(13)-11-10--10-11-12---||-----------------------|------------------------||-----------------------|------------------------|
|
|-----------------------|------------------------||-----------------------|------------------------||-----------------------|------------------------||--9-10-11-12-11-10--13-|-(13)-11-10--10-11-12---||--9-10-11-12-11-10--13-|-(13)-11-10--10-11-12---||--7--8--9-10--9--8--11-|-(11)--9--8---8--9-10---|
C5 C#5D5 C#5C5 C#5 D5 C#5C5 C#5D5 C#5|---------------------|-------------------------||-13-14-15--14-13--14-|-(14)-15-14-13-14-15-14--||-12-13-14--13-12--13-|-(13)-14-13-12-13-14-13--||-10-11-12--11-10--11-|-(11)-12-11-10-11-12-11--||---------------------|-------------------------||---------------------|-------------------------|
|
|---------------------|-------------------------||---------------------|-------------------------||---------------------|-------------------------||-10-11-12--11-10--11-|-(11)-12-11-10-11-12-11--||-10-11-12--11-10--11-|-(11)-12-11-10-11-12-11--||--8--9-10---9--8---9-|--(9)-10--9--8--9-10--9--|
B5 C5 C#5D5 C#5C5 D#5 D5 C#5C5 B5 A#5A5 G#5 ~|-----------------------|------------------------|||-12-13-14-15-14-13--16-|-15-14-13-12-11-10-9----|||-11-12-13-14-13-12--15-|-14-13-12-11-10--9-8----|||--9-10-11-12-11-10--13-|-12-11-10--9--8--7-6----|||-----------------------|------------------------|||-----------------------|---------------------3--||
|
| ~|-----------------------|------------------------|||-----------------------|------------------------|||-----------------------|------------------------|||--9-10-11-12-11-10--13-|-12-11-10--9--8--7-6----|||--9-10-11-12-11-10--13-|-12-11-10--9--8--7-6----|||--7--8--9-10--9--8--11-|-10--9--8--7--6--5-4-3--||
Chorus 2 $ A5 N.C. A5 N.C. Gtrs I, II ~~~ PM ~~~~~~~~ PM|----------------|-----------------|-----------------|------------------------||----------------|-----------------|-----------------|------------------------||-----2-2---2----|-----------------|-----2-2---2--2--|-----------------5b5.5==||-----2-2---2----|---0-------------|-----2-2---2--2--|-----------5-6-7--------||-----0-0---0----|-3---3-2-0-------|-----0-0---0--0--|-3-4-5-5s7--------------||-(3)-----3------|-----------3-0-3-|-(3)-----3-------|------------------------|
A5 N.C. A5 D5 A5 G#5G5 A5G#G5 PM ~~~~~~~~ ~|--------------------|-----------------|-----------------|--------------------||------(0)-----------|-----------------|-----------------|--------------------||-(5)r--------2--2-2-|-----------------|-----2-2---2-----|--------------------||-------------2--2-2-|---0-------------|-----2-2---2--7S=|=14-13-12\----------||-------------0--0-0-|-3---3-2-0-------|-----0-0---0--5S=|=12-11-10\--7-6-5---||----------3---------|-----------3-0-3-|-(3)-----3-------|------------5-4-3-3-|
A5 N.C. A5 N.C. ~~~ PM ~~~~~~~~ PM|----------------|-----------------|-----------------|-------------------------||----------------|-----------------|-----------------|-------------------------||-----2-2---2----|-----------------|-----2-2---2--2--|-----------------5b5.5===||-----2-2---2----|---0-------------|-----2-2---2--2--|-----------5-6-7---------||-----0-0---0----|-3---3-2-0-------|-----0-0---0--0--|-3-4-5-5s7---------------||-(3)-----3------|-----------3-0-3-|-(3)-----3-------|-------------------------|
To Coda A5 N.C. A5G5 D5 A5 G5 A5 N.C. PM|----(0)---------|----------------|---3-----------3-|-(3)------------------|||----------------|----------------|---3--3-(3)----3-|-(3)------------------|||-5r--------2----|----------------|-2-0--2-(2)-2--0-|-(0)-2----------------|||-----------2----|---0------------|-2-0--0-(0)-2--0-|-(0)-2----------------|||-----------0----|-3---3-2-0------|-0----------0----|-----0--0-3-2-0-------|||--------3-------|-----------3-0--|---3-----------3-|-(3)------------3b3.5-||
Verse 3 E D Gtrs I, II PM---| PM PM PM---| PM PM|-----------------|--------------------|-----------------|---------------------||-------------x-x-|------x-----x-------|-------------x-x-|------x-----x--------||-------------x-x-|------x-----x-------|-------------x-x-|------x-----x--------||-------------x-x-|------x-----x-------|-------------x-x-|------x-----x--------||-----2-2--2------|--2-----2-----------|-----2-2--2------|--2-----2------------||-(3)-0-0--0------|--0-----0-----3b3.5-|-(3)-0-0--0------|--0-----0-----3b3.5--|
|
| Gtr III|-^7--------------|-(7)----------------|-^5--------------|-(5)-----------------||-^9--------------|-(9)----------------|-^7--------------|-(7)-----------------||-^9--------------|-(9)----------------|-^7--------------|-(7)-----------------||-^9--------------|-(9)----------------|-^7--------------|-(7)-----------------||-----------------|--------------------|-----------------|---------------------||-----------------|--------------------|-----------------|---------------------|
A PM---| PM PM|-----------------|--------------------||-------------x-x-|------x-----x-------||-------------x-x-|------x-----x-------||-------------x-x-|------x-----x-------||-----2-2--2------|--2-----2-----------||-(3)-0-0--0------|--0-----0-----3b3.5-|
|
|-^5--------------|-(5)----------------||-^5--------------|-(5)----------------||-^6--------------|-(6)----------------||-^7--------------|-(7)----------------||-----------------|--------------------||-----------------|--------------------|
E/Ab Dadd9 PM---| PM|-----------------|-------------------------||-------------x-x-|------x-x----------------||-------------x-x-|------x-x----------------||-------------x-x-|------x-x----------------||-----2-2--2------|--2-------/5-6-7---------||-(3)-0-0--0------|--0---------------3b3.5--|
|
|-^0--------------|-(0)-------------^0------||-^5--------------|-(5)-------------^3------||-^4--------------|-(4)-------------^2------||-^6--------------|-(6)-------------^4------||-----------------|-------------------------||-----------------|-------------------------|
PM---| PM PM|-----------------|--------------------||-------------x-x-|------x-----x-------||-------------x-x-|------x-----x-------||-------------x-x-|------x-----x-------||-----2-2--2------|--2-----2-----------||-(3)-0-0--0------|--0-----0-----3b3.5-|
|
|-(0)-------------|-(0)----------------||-(3)-------------|-(3)----------------||-(2)-------------|-(2)----------------||-(4)-------------|-(4)----------------||-----------------|--------------------||-----------------|--------------------|
PM---| PM PM|-----------------|-----------------------||-------------x-x-|----x---------x--------||-------------x-x-|----x---------x--------||-------------x-x-|----x---------x--------||-----2-2--2------|-2----2----------------||-(3)-0-0--0------|-0----0---------3b3.5--|
|
|-(0)-0-----------|-2---------------------||-(3)------3------|------------3----------||-(2)---------2---|------2-(2)------------||-(4)-------------|-----------------------||-----------------|-----------------------||-----------------|-----------------------|
E/Ab PM---| PM PM|----------------|--------------------||------------x-x-|------x-----x-------||------------x-x-|------x-----x-------||------------x-x-|------x-----x-------||----2-2--2------|--2-----2-----------||--3-0-0--0------|--0-----0-----3b3.5-|
|
|-^0-------------|-(0)----------------||-^5-------------|-(5)----------------||-^4-------------|-(4)----------------||-^6-------------|-(6)----------------||----------------|--------------------||----------------|--------------------|
Dadd9 PM---||-----------------|-------------------------||-------------x-x-|-2-3---------------------||-------------x-x-|-----3-4-----------------||-------------x-x-|----------0--------------||-----2-2--2------|-------------4-0---------||-(3)-0-0--0------|------------------3b3.5--|
|
|-(0)-0-----------|-4---------------^0------||-(5)------5------|-------------5---^3------||-(4)---------4---|-------4-(4)-----^2------||-(6)-------------|-----------------^4------||-----------------|-------------------------||-----------------|-------------------------|
PM---| PM PM|-----------------|--------------------||-------------x-x-|------x-----x-------||-------------x-x-|------x-----x-------||-------------x-x-|------x-----x-------||-----2-2--2------|--2-----2-----------||-(3)-0-0--0------|--0-----0-----3b3.5-|
|
|-(0)-------------|-(0)----------------||-(3)-------------|-(3)----------------||-(2)-------------|-(2)----------------||-(4)-------------|-(4)----------------||-----------------|--------------------||-----------------|--------------------|
PM---| PM PM|-----------------|-----------------------||-------------x-x-|----x---------x--------||-------------x-x-|----x---------x--------||-------------x-x-|----x---------x--------||-----2-2--2------|-2----2----------------||-(3)-0-0--0------|-0----0---------3b3.5--|
|
|-(0)-0-----------|-2---------------------||-(3)------3------|------------3----------||-(2)---------2---|------2-(2)------------||-(4)-------------|-----------------------||-----------------|-----------------------||-----------------|-----------------------|
E/Ab PM---| PM PM|-----------------|--------------------||-------------x-x-|------x-----x-------||-------------x-x-|------x-----x-------||-------------x-x-|------x-----x-------||-----2-2--2------|--2-----2-----------||-(3)-0-0--0------|--0-----0-----3b3.5-|
|
|-^0--------------|-(0)----------------||-^5--------------|-(5)----------------||-^4--------------|-(4)----------------||-^6--------------|-(6)----------------||-----------------|--------------------||-----------------|--------------------|
Eb/G PM---||-----------------|----------------------|||-------------x-x-|---------------8-(8)--|||-------------x-x-|-------7--8--9---(8)--|||-------------x-x-|-7-8-9---------5------|||-----2-2--2------|-------5--6--7----7---|||-(3)-0-0--0------|-5-6-7----------------||
|
|-(0)-0-----------|-4----------------3---|||-(5)------5------|-------------5----4---|||-(4)---------4---|-------4-(4)------3---|||-(6)-------------|------------------5---|||-----------------|----------------------|||-----------------|----------------------||
Interlude PM PM PM PM|--------------------|--------------------||-(8)-(8)\-------x-x-|------x-----x-------||-(8)-(8)\-------x-x-|------x-----x-------||----------------x-x-|------x-----x-------||-(7)-(7)\-2--2------|--2-----2-----------||----------0--0------|--0-----0-----3b3.5-|
|
|-(3)----------------|-(3)----------------||-(4)----------------|-(4)----------------||-(3)----------------|-(3)----------------||-(5)----------------|-(5)----------------||--------------------|--------------------||--------------------|--------------------|
F/A Gtr II ~~~|------------------|-------------------------||--------------8---|-8s10--------------------||-----/8----8------|---------8-(8)-----------||------------------|-------------------------||------------------|-------------------------||------------------|-------------------------|
|
| Gtr I| PM---| PM PM|------------------|-------------------------||--------------x-x-|-------x---------x-------||--------------x-x-|-------x---------x-------||--------------x-x-|-------x---------x-------||------2-2--2------|----2----2---------------||-(3)--0-0--0------|----0----0---------3b3.5-|
|
| Gtr III|-(3)--3-----------|-------------------5-----||-(4)-------4------|---------------4---6-----||-(3)----------3---|---------3-(3)-----5-----||-(5)--------------|----5--------------7-----||------------------|-------------------------||------------------|-------------------------|
|-----------------------|---------------------------||------------/15s=13-13-|-(13)--------12tr13--------||-8s10------------------|---------------------------||-----------------------|---------------------------||-----------------------|---------------------------||-----------------------|---------------------------|
|
| PM---| PM PM|-----------------------|---------------------------||------------------x--x-|-------x------x------------||------------------x--x-|-------x------x------------||------------------x--x-|-------x------x------------||-------2-2----2--------|---2-----2-----------------||---(3)-0-0----0--------|---0-----0----------3b3.5--|
|
|---(5)-----------------|--(5)----------------------||---(6)-----------------|--(6)----------------------||---(5)-----------------|--(5)----------------------||---(7)-----------------|--(7)----------------------||-----------------------|---------------------------||-----------------------|---------------------------|
Eb/G ~~~|------------12------|---------------------------||-12------------8----|---------------------------||-----------------10-|-9tr10--9/-----------------||--------------------|---------------------------||--------------------|---------------------------||--------------------|---------------------------|
|
| PM---| PM|--------------------|---------------------------||---------------x--x-|--------x--x---------------||---------------x--x-|--------x--x-/5--4-3-------||---------------x--x-|--------x--x-/7--6-5-------||-----2-2--2---------|-2-------------------------||--3--0-0--0---------|-0-------------------3b3.5-|
|
|-(5)-5--------------|---------------------3-----||-(6)------6---------|-----------------6---4-----||-(5)-----------5----|-----------5-(5)-----3-----||-(7)----------------|-7-------------------5-----||--------------------|---------------------------||--------------------|---------------------------|
|-21--19h21p19s18-19-(19)p15---18-||---------------------------------||---------------------------------||---------------------------------||---------------------------------||---------------------------------|
|
| PM------------||---------------------------------||----------------------------x--x-||----------------------------x--x-||----------------------------x--x-||------2--------2------2----------||-(3)--0--------0------0----------|
|
|-(3)-----------------------------||-(4)-----------------------------||-(3)-----------------------------||-(5)-----------------------------||---------------------------------||---------------------------------|
~~~~|-15h=18p15s13-15---(15)--(15)\--------||-------------------------------(0)----||--------------------------------------||--------------------------------------||--------------------------------------||--------------------------------------|
|
| PM PM|--------------------------------------||---------------x-----------x----------||---------------x-----------x----------||---------------x-----------x----------||--2--------------2--------------------||--0--------------0--------------3b3.5-|
|
|-(3)----------------------------------||-(4)----------------------------------||-(3)----------------------------------||-(5)----------------------------------||--------------------------------------||--------------------------------------|
|-13h=15p13s11-(11)h13p11s9h11p9s7-(7)h9p7s6-(6)h7p6s=||-----------------------------------------------------||-----------------------------------------------------||-----------------------------------------------------||-----------------------------------------------------||-----------------------------------------------------|
|
| PM-------------------||-----------------------------------------------------||--------------------------------------x------x-------||--------------------------------------x------x-------||--------------------------------------x------x-------||------2---------2-----------2------------------------||-(3)--0---------0-----------0------------------------|
|
|-(3)--3----------------------------------------------||-(4)------------------------4------------------------||-(3)----------------------------------3--------------||-(5)-------------------------------------------------||-----------------------------------------------------||-----------------------------------------------------|
F/A ~~~~~~~|-3-3-3h6p3s1s=3----(3)-(3)-------|------------------------------||---------------------------------|-/10-------(10)s15s=13---[13]-||---------------------------------|------------------------------||---------------------------------|------------------------------||---------------------------------|------------------------------||---------------------------------|------------------------------|
|
| PM PM PM--------||---------------------------------|------------------------------||-------x----------------x--------|---------------------x-x------||-------x----------------x--------|---------------------x-x------||-------x----------------x--------|---------------------x-x------||-2---------2---------------------|------2-2--------2------------||-0---------0---------------3b3.5-|--(3)-0-0--------0------------|
|
|---------------------------5-----|--(5)-------------------------||-----------------4---------6-----|--(6)-------------------------||-----------3-(3)-----------5-----|--(5)-------------------------||-5-------------------------7-----|--(7)-------------------------||---------------------------------|------------------------------||---------------------------------|------------------------------|
~~~~~~~~~~~~|----------------------------------||-(13)-(13)-----(13)--13h15p13-----||----------------------------------||----------------------------------||----------------------------------||----------------------------------|
|
| PM PM|----------------------------------||-----------x----------x-----------||-----------x----------x-----------||-----------x----------x-----------||---2---------2--------------------||---0---------0--------------3b3.5-|
|
|--(5)-----------------------------||--(6)-----------------------------||--(5)-----------------------------||--(7)-----------------------------||----------------------------------||----------------------------------|
~~|---------------15b17===(15)r(15)-|-13-----------------||-12----------x-------------------|--------------------||-----------x---------------------|--------------------||---------x-----------------------|----------x\--------||---------------------------------|--------------------||---------------------------------|-------------x\-----|
|
| PM--------| PM PM|---------------------------------|--------------------||-------------------------x----x--|-----x-x------------||-------------------------x----x--|-----x-x--x\----x\--||-------------------------x----x--|-----x-x--x\----x\--||-----2-2--------2----------------|--2-------x\----x\--||-(3)-0-0--------0----------------|--0-----------------|
|
|-(5)-5---------------------------|--------------------||-(6)------------6----------------|-------------6------||-(5)---------------------5-------|-------5-(5)--------||-(7)-----------------------------|--7-----------------||---------------------------------|--------------------||---------------------------------|--------------------|
Gtr I | | | | | | | | | | | | | o / / / / / / x x / / / /
Gtr II ~~~~~~~|----7-6-(6)------|-----/13--12-(12)------||---------------6-|-(6)-------------------||-7----------6----|-------------------13--||-----------------|-----------------------||-----------------|-----------------------||-----------------|-----------------------|
|
| Gtr III|-7----6-(6)----5-|-(5)-------4--(4)------||-8----7-(7)----6-|-(6)-------5--(5)------||-7----6-(6)----5-|-(5)-------4--(4)------||-----------------|-----------------------||-----------------|-----------------------||-----------------|-----------------------|
| | | | | | | | || / / / / / / / / //
~~~~~~~ ~~~~~~~|-----15-14-(14)--------|-13--12------------------||--------------------13-|-------------------------||-12-------------15-----|--------13-13s15-(15)----||-----------------------|-------------------------||-----------------------|-------------------------||-----------------------|-------------------------|
|
|--7------6--(6)------5-|-(5)--4--------3--(3)----||--8------7--(7)------6-|-(6)--5--------4--(4)----||--7------6--(6)------5-|-(5)--4--------3--(3)----||-----------------------|-------------------------||-----------------------|-------------------------||-----------------------|-------------------------|
| | | | | | | | | | | | | | / / / / / / / / / / / x x o
~~|-------------------------|---------------------------||-------15-14-(14)-11--10-|--------12--11-(11)--------||-12-12-------------------|-----10-------------11-----||-------------------------|-10------------------------||-------------------------|---------------------------||-------------------------|---------------------------|
|
|--7--------6--(6)------5-|-(5)-----4---3--(3)--2-2-1-||--8--------7--(7)------6-|-(6)-----5---4--(4)--3-3-2-||--7--------6--(6)------5-|-(5)-----4---3--(3)--2-2-1-||-------------------------|---------------------------||-------------------------|---------------------------||-------------------------|---------------------------|
| | | | | | | | | | / o / / / / / / / /
|--------------14-13----|-----15----17------21---|||--------12-14-------13-|-/17----18----/19-------|||--13-12----------------|------------------------|||-----------------------|------------------------|||-----------------------|------------------------|||-----------------------|------------------------||
|
|---8--7-----6-----5----|---4--3-----2--(2)--1---|||---9--8-----7-----6----|---5--4-----3--(3)--2---|||---8--7-----6-----5----|---4--3-----2--(2)--1---|||-----------------------|------------------------|||-----------------------|------------------------|||-----------------------|------------------------||
Guitar Solo Gtr II T T T T ~~~|--------------------------------|---------------------------------||-----7h10-14p10p7---------------|-7h10-14p10p7--------------------||-8h9--------------h9-14p9p8-8h9-|--------------h9-14p9p8-(8)--8h9-||--------------------------------|---------------------------------||--------------------------------|---------------------------------||--------------------------------|---------------------------------|
T T T T T T ~~~|-----------------7h11-14p11p7-------------------|------------------------||-7h10-14p10p7h10--------------h10-14p10p7-------|------------------------||------------------------------------------h9-14p|=9-14p9p8-14p9p8-(8)----||------------------------------------------------|------------------------||------------------------------------------------|------------------------||------------------------------------------------|------------------------|
Gtr II T T|-----------------------------------------||--------7h10-14p10p=7--------------------||--8h=9-----------------h9-14p=9p=8--8h=9-||-----------------------------------------||-----------------------------------------||-----------------------------------------|
|
| Gtr IV| T T|-----------------------------------------||--------5h=8-12p=8p=5--------------------||--6h=7-----------------h7-12p=7p=6--6h=7-||-----------------------------------------||-----------------------------------------||-----------------------------------------|
|
| Gtr V| T T|-----------------------------------------||-------12h15-19p15p12--------------------||-13h14----------------h14-19p14p13-13h14-||-----------------------------------------||-----------------------------------------||-----------------------------------------|
T T ~~~~|-----------------------------------------||--7h10-14p10p=7--------------------------||-----------------h9-14p=9p=8--(8)---8h=9-||-----------------------------------------||-----------------------------------------||-----------------------------------------|
|
| T T ~~~~|-----------------------------------------||--5h=8-12p=8p=5--------------------------||-----------------h7-12p=7p=6--(6)---6h=7-||-----------------------------------------||-----------------------------------------||-----------------------------------------|
|
| T T ~~~~|-----------------------------------------||-12h15-19p15p12--------------------------||----------------h14-19p14p13-(13)--13h14-||-----------------------------------------||-----------------------------------------||-----------------------------------------|
T T T T|--------------------7h11-14p11p=7---------------------||--7h10-14p10p=7h10----------------h10-14p10p=7--------||------------------------------------------------h9-14p||------------------------------------------------------||------------------------------------------------------||------------------------------------------------------|
|
| T T T T|--------------------5h=9-12p=9p=5---------------------||--5h=8-12p=8p=5h=8-----------------h8-12p=8p=5--------||------------------------------------------------h7-12p||------------------------------------------------------||------------------------------------------------------||------------------------------------------------------|
|
| T T T T|-------------------12h16-19p16p12---------------------||-12h15-19p15p12h15----------------h15-19p15p12--------||-----------------------------------------------h14-19p||------------------------------------------------------||------------------------------------------------------||------------------------------------------------------|
T T
Tap to rate this tab
 
# A B C D E F G H I J K L M N O P Q R S T U V W X Y Z