Stevie Ray Vaughan - Sky Is Crying tab

E||--------13b---13--11--------------------|--8~-----------------------|B||---------------------13~---11-8---------|---------------------------|G||--------------------------------10b-----|---------------------------|D||----------------------------------------|---------------------------|A||----------------------------------------|---------------------------|E||----------------------------------------|---------------------------|
----------13b---------------|--11--------11--------------------------|----------------------------|-----13~--------13------11~---11~-------|----------------------------|--------------------12------------------|----------------------------|----------------------------------------|----------------------------|----------------------------------------|----------------------------|----------------------------------------|
--------13b---13--11--------------------|--8~-----------------------|---------------------13~---11-8---------|---------------------------|--------------------------------10b-----|---------------------------|----------------------------------------|---------------------------|----------------------------------------|---------------------------|----------------------------------------|---------------------------|
----------11b---11b------11b----|--------------------------------|--------------------------------|--------------------------------|--------------------------------|--------------------------------|
---8~-------------------------8-----------------11--|---------11h8-----------------------------------11--|--------------10r-8----8h10b----8~--------------12--|--------------------10--------------10h8------------|-----------------------------------------10-11------|--------------------------------------------11------|
----------------------------|--20/-----------------------|--10~-----------------------|--20/-----------------------|--10~-----------------------|----------------------------|--9~------------------------|----------------------------|----------------------------|----------------------------|----------------------------|----------------------------|
----------11b---11b---8---8-11-8~---|--8/------------------------------------|------------------------8-----------|----------------------------------------|------------------------------------|----------------------10~---10----------|------------------------------------|----------------------------------------|------------------------------------|------------8--9-10-------------10~-----|------------------------------------|------3/12/-----------------------------|
--------------------8------------|--8~------------------------|---------------------------------|-----8----------------------|--------------10b---------8h10~--|----------------------------|---------------------------------|----------------------------|---------------------------------|----------------------------|-----------------------8---------|----------------------------|
----------13b---------------|--11--------11----------------------------|----------------------------|-----13~--------13------11~---11~-11~-----|----------------------------|--------------------12--------------------|----------------------------|------------------------------------------|----------------------------|------------------------------------------|----------------------------|------------------------------------------|
--------------13b-11-----------------|--8~-----------------------|---------------------13~--11-8-------|---------------------------|-------------------------------10b---|---------------------------|-------------------------------------|---------------------------|-------------------------------------|---------------------------|-------------------------------------|---------------------------|
--------11b-------11b---11b-----|--8------------------------------8/---10/11-|--------------------------------|----8~---8-11h8------------------8/---10/11-|--------------------------------|----------------10r-10r-10r-8~--------10/11-|--------------------------------|--------------------------------------------|--------------------------------|--------------------------------------------|--------------------------------|--------------------------------------------|
--------------------------20/-|--8/-----------------------|--10~---------------------20/-|--8/-----------------------|--10~-------------------------|---------------------------|------------------------------|---------------------------|------------------------------|---------------------------|------------------------------|---------------------------|
----13b----13b------11b------11-------|--------------------------13----13~---|--------------------------------------|--------------------------------------|--------------------------------------|--------------------------------------|
--11b-------------------------------11-13b----|------------11------11~-11~---13-13-----------|--------12------12----------------------------|----------------------------------------------|----------------------------------------------|----------------------------------------------|
--13b---13b-13b-11---------------11b-------|-------------------13-13~--13~-------------|-------------------------------------------|-------------------------------------------|-------------------------------------------|-------------------------------------------|
------------11-13b---13b13b-------------------|------13-13----------------13-13~-------13h11-|----------------------------------------------|----------------------------------------------|----------------------------------------------|----------------------------------------------|
--13r--13b-----11b-------11b---13b---|-------------------------------------|-------------------------------------|-------------------------------------|-------------------------------------|-------------------------------------|
------------11--13b---11b-11---------------------|--13~---13~------------------13~--13~---13-13h11-|-------------------------------------------------|-------------------------------------------------|-------------------------------------------------|-------------------------------------------------|
--13b--------13b--11~-----------|--------------------------------|--------------------------------|--------------------------------|--------------------------------|--------------------------------|
------------11-13b--13b-13b11-------------------|------13-13-------------------13~---13~---13-13-|------------------------------------------------|------------------------------------------------|------------------------------------------------|------------------------------------------------|
--13r-------11b---8-------------------|-----------------------11h8-----------|----------------------------10r-8~--0-|--------------------------------------|--------------------------------------|--------------------------------------|
--------8-------------------------------------------|----------8-11-8------------------------------------|--10b------------10b-10b-10h8--------------8--10b---|------------------------------10-10~-10-10----------|----------------------------------------------------|----------------------------------------------------|
-------8h10-10--9h8-------8------------------------------------------|--8h10b--------------11-8---11-8-----------------8-------------------|---------------------------------10b10h8----8-10---8-----------------|-----------------------------------------10----------10h8------------|----------------------------------------------------------10-9-8-----|-----------------------------------------------------------------11b-|
--------8---8---8---8---8-----------11--13b---|----------8---8---8---8---8-11/13~------------|--10b-----------------------------------------|----------------------------------------------|----------------------------------------------|----------------------------------------------|
--11----------------11----------------|-----13~----13~--------13~----13~-----|--------------------------------------|--------------------------------------|--------------------------------------|--------------------------------------|
--11--------11----------------------11-13b----|-----13~--------13------11~---13-13-----------|--------------------12------------------------|----------------------------------------------|----------------------------------------------|----------------------------------------------|
--13b-------11b---------11b-------|----13r-----12r---12b11-------------------|--13b-------------13~-------------|----13r-----12r---12b---13~-13~-----13-11-|----------------------------------|----13r-----------------------------------|----------------------------------|------------------------------------------|----------------------------------|------------------------------------------|----------------------------------|------------------------------------------|
--13b-----------------------|----11b-----11b---11b-----11b---13b-|----------------------------|------------------------------------|----------------------------|------------------------------------|----------------------------|------------------------------------|----------------------------|------------------------------------|----------------------------|------------------------------------|
--13b-11-------11----------8------8-10-9h8------11b-----11b---|---------13~------15h11------8-11b---------11b8---------------|------------------------12------------------------------------|--------------------------------------------------------------|--------------------------------------------------------------|--------------------------------------------------------------|
--8-11-8~---11h8-------------------------8--------------------------|------------11h8-----------------------8---11h8------------------11-|-----------------10b-10b-10h8----8-10b----------11h10h8----8-11-----|------------------------------10------------------------10----------|--------------------------------------------------------------------|--------------------------------------------------------------------|
---------------------------8---------11/13------11-------|-----------------------------8-11/13---------13----13~---|--10h9----9----------10b---------------------------------|-------10---10h8-----------------------------------------|-----------------10--------------------------------------|---------------------------------------------------------|
--11b-----12b-----------------11b---12b-|----12b---12b-13r---13~---------13r-|------------------13~---13-13-----------|------------------------------------|----------------------------------------|------------------------------------|----------------------------------------|------------------------------------|----------------------------------------|------------------------------------|----------------------------------------|------------------------------------|
------11r---13b--12b---13b---11------------|--------------------------------13~--13-13-|-------------------------------------------|----0--------------------------------------|-------------------------------------------|-------------------------------------------|
--11b-----8~----------------------------|---------------11h8---------------------|--------------------10b10h8~---8--------|---------------------------------10~----|----------------------------------------|----------------------------------------|
--8/---------------------------------------|----------------------------|--8/---------------------------------------|----------------------------|--8/-----------------------10------10------|--------------------10b-----|--8/-5-------------------------------------|----------------------------|-------------10-10--9-10-------------------|----------------------------|--------6/11-------------------------------|----------------------------|
--8------------------------|--------------8------8-11/13------11-------|---------------------------|--------11b-----8-11-----------13----13~---|---------------------------|-------------------------------------------|---------------------------|-------------------------------------------|---------------------------|-------------------------------------------|---------------------------|-------------------------------------------|
--11b-------13b--11-8~-----8--8----|------------------------13b-|-----------------------------------|----------------------------|-----------------------------------|----------------------------|-----------------------------------|----------------------------|-----------------------------------|----------------------------|-----------------------------------|----------------------------|
--11--------------------------|----------------8~--------------|-----13~----------------------|------11b-----------------------|------------------------------|-----------------------10r-8----|------------------------------|--------------------------------|------------------------------|--------------------------------|------------------------------|--------------------------------|
----------8-------------------10/11-10--|------------------------20/---|--11b-------------------------10/11-10--|--10~-------------------20/---|--x------------10r-8r---------10/11-10--|--10~-------------------------|------------------------10~-------------|--9~--------------------------|----------------------------------------|------------------------------|----------------------------------------|------------------------------|
---------------------------|------11b---11b---8-11-8~----------------|--8------------------------|----------------------------11h8---------|--8------------------------|---------------------------------10b-10b-|--7------------------------|-----------------------------------------|---------------------------|-----------------------------------------|---------------------------|-----------------------------------------|
------------4------3------------|----------3--3~-----------------||------------4------3------------|--------3----3~-----------------||--8---------4------3------------|------3------3~-----------------||------------3------2------------|----2--------2~-----------------||-----10-------------------------|--------------------------------||---------4----------------------|--3-----------------------------||
| / slide up | \ slide down | h hammer-on | p pull-off | ~ vibrato | + harmonic | x Mute note
Tap to rate this tab
 
# A B C D E F G H I J K L M N O P Q R S T U V W X Y Z