Stevie Ray Vaughan - Life From The Drop tab

Stevie Ray Vaughan
Life From the Drop
The Sky Is Crying

I tried to get as close as i can with this tab.You gotta listen a little, especially the 
Hope you enjoy!! any comments..email me at travis_cobb44@verizonmail.com.
     Intro

E||----------------------------------------|------------------------|B||----------------------------------------|------------------------|G||-----------------1-------------1--------|------------------------|D||-----------1-2-3---1-2-1---1------3--2--|--1-2-1-----------------|A||--1-----4----------------4---4----------|---------4--6-----------|E||----------------------------------------|---------------6--6--6--|
------------------------------|----------------------------|------------------------------|----------------------------|------------------------------|----------------------------|--8--8---8---8--8--8---8---8--|--------------8--8---8---8--|--8--8--10--10--8--8--10--10--|--------------8--8--10--10--|--6--6---6---6--6--6---6---6--|--9--6--6--6--6--6---6---6--|
Verse 1
---------------------|------------------------------|---------------------|------------------------------|---------------------|------------------------------|--8-------8---8---8--|--8--8---8---8--8--8---8---8--|--8-------8--10--10--|--8--8--10--10--8--8--10--10--|--6-------6---6---6--|--6--6---6---6--6--6---6---6--|
----------------------------------|--------3-------3------|----------------------------------|--------4-------4------|--10--10--10--10--10--10--12--12--|--------3-------3------|--10--10--12--12--10--10--12--12--|--5--5--5----5--5------|---8---8---8---8---8---8---8---8--|--5--5--5----5--5------|----------------------------------|--3--3--3----3--3------|
------------------------------|------------------------------|------------------------------|------------------------------|--8--8---8---8--8--8---8---8--|------------------------------|--8--8--10--10--8--8--10--10--|--8--8---8---8--8--8---8---8--|--6--6---6---6--6--6---6---6--|--8--8--10--10--8--8--10--10--|------------------------------|--6--6---6---6--6--6---6---6--|
----------------------------------|--------3---------3----|----------------------------------|--------4---------4----|--10--10--10--10--10--10--10--10--|--------3---------3----|--10--10--12--12--10--10--12--12--|--5--5--5----5----5----|---8---8---8---8---8---8---8---8--|--5--5--5----5----5----|----------------------------------|--3--3--3----3----3----|
------------------------------|--------3----------3----|------------------------------|--------4----------4----|--8--8---8---8--8--8---8---8--|------------------------|--8--8--10--10--8--8--10--10--|--5--5-------5--5-------|--6--6---6---6--6--6---6---6--|--5--5-------5--5-------|------------------------------|--3--3-------3--3-------|
------------------------------|--------3----------3----|------------------------------|--------4----------4----|--8--8---8---8--8--8---8---8--|------------------------|--8--8--10--10--8--8--10--10--|--5--5-------5--5-------|--6--6---6---6--6--6---6---6--|--5--5-------5--5-------|------------------------------|--3--3-------3--3-------|
Chorus
--6------------8--------------|--7------6----1--------|--6------------8--------------|--8------8----1--------|--8--8--8--8--10--10--10--10--|--7------8----1--------|--8--8--8--8--10--10--10--10--|--5------8----3--------|--6--6--6--6---8---8---8---8--|---------6----3--------|------------------------------|--------------1--------|
Interlude 1
---------------------------------------|------------------------------|---------------------------------------|------------------------------|---------------------------------------|------------------------------|--8-----------8---8---8--8--8---8---8--|--8--8---8---8--8--8---8---8--|--8-----------8--10--10--8--8--10--10--|--8--8--10--10--8--8--10--10--|--6-----------6---6---6--6--6---6---6--|--6--6---6---6--6--6---6---6--|
----------------------------------|--------3----------3----|----------------------------------|--------4----------4----|--10--10--10--10--10--10--10--10--|--------3----------3----|--10--10--12--12--10--10--12--12--|--5--5--5----5--5--5----|---8---8---8---8---8---8---8---8--|--5--5--5----5--5--5----|----------------------------------|--3--3--3----3--3--3----|
------------------------------|------------------------------|------------------------------|------------------------------|--8--8---8---8--8--8---8---8--|------------------------------|--8--8--10--10--8--8--10--10--|--8--8---8---8--8--8---8---8--|--6--6---6---6--6--6---6---6--|--8--8--10--10--8--8--10--10--|------------------------------|--6--6---6---6--6--6---6---6--|
----------------------------------|--------3----------3----|--6----------------|----------------------------------|--------4----------4----|--6----------------|--10--10--10--10--10--10--10--10--|--------3----------3----|--8----------------|--10--10--12--12--10--10--12--12--|--5--5--5----5--5--5----|--8----------------|---8---8---8---8---8---8---8---8--|--5--5--5----5--5--5----|--6----------------|----------------------------------|--3--3--3----3--3--3----|-------------------|
|----3----| |-----3-----|
--------3---------3----|--6----6----6-----8-----8-----8----|--------4---------4----|--8----8----8----10----10----10----|--------3---------3----|--8----8----8----10----10----10----|--5--5--5----5----5----|--8----8----8----10----10----10----|--5--5--5----5----5----|--6----6----6-----8-----8-----8----|--3--3--3----3----3----|-----------------------------------|
|----3----| |-----3-----|
--------3----------3----|--6----6----6-----8-----8-----8----|--------4----------4----|--8----8----8----10----10----10----|--------3----------3----|--8----8----8----10----10----10----|--5--5--5----5--5--5----|--8----8----8----10----10----10----|--5--5--5----5--5--5----|--6----6----6-----8-----8-----8----|--3--3--3----3--3--3----|-----------------------------------|
Chorus
---------6----1--------|------------------------------|--7------8----1--------|------------------------------|--8------8----1--------|------------------------------|--7------8----3--------|--8--8---8---8--8--8---8---8--|--5------6----3--------|--8--8--10--10--8--8--10--10--|--------------1--------|--6--6---6---6--6--6---6---6--|
Verse 3
------------------------------|-----------------------------------|------------------------------|-----------------------------------|------------------------------|-----------------------------------|--8--8---8---8--8--8---8---8--|--8-------8---8---8--8--8---8---8--|--8--8--10--10--8--8--10--10--|--8-------8--10--10--8--8--10--10--|--6--6---6---6--6--6---6---6--|--6-------6---6---6--6--6---6---6--|
----------------------------------|--------3----------3----|----------------------------------|--------4----------4----|--10--10--10--10--10--10--10--10--|--------3----------3----|--10--10--12--12--10--10--12--12--|--5--5--5----5--5--5----|---8---8---8---8---8---8---8---8--|--5--5--5----5--5--5----|----------------------------------|--3--3--3----3--3--3----|
--3-------6--6-----------|------------------------------|--4-------8--8-----------|------------------------------|----------8--8--------8--|------------------------------|----------8--8--6--8-----|--8--8---8---8--8--8---8---8--|-------6-----------------|--8--8--10--10--8--8--10--10--|-------------------------|--6--6---6---6--6--6---6---6--|
----------------------------------|--3----------------|--------------------|----------------------------------|--4----------------|--11----------------|--10--10--10--10--10--10--10--10--|--3----------------|--12----------------|--10--10--12--12--10--10--12--12--|--5----------------|--11----------------|---8---8---8---8---8---8---8---8--|--5----------------|--------------------|----------------------------------|--3----------------|--12----------------|
------3--3------3--3----|--11------------------------------|------4--4------4--4----|--13------------------------------|------3--3------3--3----|--13------------------------------|------5--5------5--5----|--13------------------------------|------5--5------5--5----|--11------10------10--------------|--3---3--3--3---3--3----|--11--13------13------13--13--11--|
--------3--3--------3--3--|----------------------------------|--------4--4--------4--4--|----------------------------------|--------3--3--------3--3--|----------------------------------|--------5--5--------5--5--|----------------------------------|--------5--5--------5--5--|----------10------10--10----------|--3--3--3--3--3--3--3--3--|--11--13------13----------13--10--|
Chorus
---------3----6----3----|------------------------------|---------4----8----5----|------------------------------|--------------8----5----|------------------------------|--------------8----5----|--8--8---8---8--8--8---8---8--|--------------6----3----|--8--8--10--10--8--8--10--10--|--3---------------------|--6--6---6---6--6--6---6---6--|
Chorus |--3--|
-------------------------------|--7------6----1--------|-------------------------------|--8------8----1--------|-------------------------------|--7------8----1--------|--8--8-----------8--8---8---8--|--5------8----3--------|--8--8-----------8--8--10--10--|---------6----3--------|--6--6--9--6--6--6--6---6---6--|--------------1--------|
|--3--| |---3--|
-------------------------------|---------------------------------|-------------------------------|---------------------------------|-------------------------------|---------------------------------|--8--8---8---8--8--8-----------|--8--8---8---8--8--8---8--8---8--|--8--8--10--10--8--8-----------|--8--8--10--10--8--8--10--8--10--|--6--6---6---6--6--6--9--6--6--|--6--6---6---6--6--6---6--6---6--|
--7----6----1----6----||--8----8----1----6----||--7----8----1----7----||--5----8----3----8----||-------6----3----8----||------------1----6----||
Tap to rate this tab
 
# A B C D E F G H I J K L M N O P Q R S T U V W X Y Z