Still Remains - Anemia In Your Sheets tab

this is only my copy of the guitar on the left stereo..ill put out another soon of both
i dont have the exact pattern of when the guitarist plays the open D (low D power chord)
u may just have to figure that part out...the end solo is %100 perfect im pretty 
enjoy..rate and please comment and any questions or messed up email me at
keegan.skate.28@hotmail.com..thanks

Left Stereo Guitar

IntroE|-------------------------|B|-------------------------|G|-------------------------|D|-----------7-------------|A|-drum line---------------|D|-------------------------|
Intro B|-----------------------------------------------------------||-----------------------------------------------------------||-----------------------------------------------------------||-----------------------------------------------------------||-5--5--5--5--8--8--5-8-7-5---5--5--5--5--8--8--5-8-7-5-----||--00-00-00-00-00-00-------8-7-55-55-55-55-55-55-------8-7--|
pm .. .. .. .. .. .. .. .. .. .. .. ..|--------------------------------------------------------------------||--------------------------------------------------------------------||---------------5----------------------------------------------------||-----------------8-7-5------7-5--------------------------------5/7--||-5--7--8--10--------------------8-7-5---000000-000-0-000-00000----8-||--88-88-88--88---------8-5------------53000000-000-0-000-00000------|
pm .. .. .. .. ...... ... . ... .....|-----------------------------------------------------------||-----------------------------------------------------------||-----------------------------------------------------------||-----------------------------------------------------------||-5--5--5--5--8--8--5-8-7-5---5--5--5--5--8--8--5-8-7-5-----||--00-00-00-00-00-00-------8-7-55-55-55-55-55-55-------8-7--|
pm .. .. .. .. .. .. .. .. .. .. .. ..|--------------------------------------------------------------------||--------------------------------------------------------------------||---------------5----------------------------------------------------||-----------------8-7-5------7-5-------------------------------------||-5--7--8--10--------------------8-7-5---000000-000-0-000-00000--5-3-||--88-88-88--88---------8-7-5----------5-000000-000-0-000-00000------|pm .. .. .. .. ...... ... .... .....
Pre verse|--------------------------------------------------------------------||--------------------------------------------------------------------||--------------------------------------------------------------------||-0----------------5h7-5-2-5-----------------3---7-00-5-00-3-00-2-00-||-0------------------------5-----------------3-----------------------||-0------------------------5-----------------3-----------------------|
Verse|----------------------------------------------------------------||----------------------------------------------------------------||----------------------------------------------------------------||-------------------------------------7-3------------------------||-0-000-0-0-0-5-8-7-5-----0-00--0-0-0-7-3-0-000-0-0-0-5-8-7-5----||-0-000-0-0-0---------8-7-0-00--0-0-0-7-3-0-000-0-0-0--------8-7-|
pm. ... . . . . .. . . . . ... . . .|---------------------||---------------------||---------------------||---------------------||-----0-000-0-0-0-5-7-||-8-7-0-000-0-0-0-5-7-| . ... . . .
|-------------------------------------------------------------------||-------------------------------------------------------------------||-------------------------------------------------------------------||-------------------------------------------------------------------||5-555-5-5-5-5-8-7-5-----5-555-5-5--5-7---8-3-333-3-3-3-5-8-7-5-8-7-||5-555-5-5-5---------8-7-5-555-5-5--5-7---8-3-333-3-3-3---------8-7-|
. ... . . . . ... . . ... . . .|---------------------||---------------------||---------------------||-7-00-5-00-3-00-2-00-||---------------------||---------------------|
|------------------------------------------------------||------------------------------------------------------||------------------------------------------------------||------------------------------------------------------||-0-000-0-0-0-0-0-0---------0-000--0-0-0-0-0-0---------||-0-000-0-0-0-0-0-0-777-333-0-000--0-0-0-0-0-0-555-777-|pm. ... . . . . . . ... . . . . .
|---------------------------------------------------------------||---------------------------------------------------------------||---------------------------------------------------------------||-------------------------------------------7-00-5-00-3-00-2-00-||5-555-5-5-5-5-5-5----------3-333-3-3-3-3-3---------------------||5-555-5-5-5-5-5-5--777-888-3-333-3-3-3-3-3---------------------|
. ... . . . . . . ... . . . . .Pre-chorus|------------------------------------------------------------------------||------------------------------------------------------------------------||------------------------------------------------------------------------||--5---5---5---7---7---7---3---3---3---5---5---5---7---7---7---7---7---7-||-8---8---8---8---8---8---7---7---7---7---7---7---5---5---5---5---5---5--||------------------------------------------------------------------------|
pm......................................................................|-----------------------||-----------------------||-------------101010999-||-5-8-7-5---------------||---------8-7-----------||-----------------------|
|---------------------------------------------------------||---------------------------------------------------------||---------------------------------------------------------||---------------------------------------------------------||-8-8-8-8-8-8-8---8-8---8-8---8-8-8-8-8-8-8---8-8---8-8-5-||-8-8-8-8-8-8-8---8-8---8-8---8-8-8-8-8-8-8---8-8---8-8-5-|
Chorus|------------------------------------------------------||------------------------------------------------------||----------------------------------------------/10-9-7-||------------------------------------------------------||-0-0-0-0-0-0-0---0-0---0-0---0-0-0-0-0-0-0--0---------||-0-0-0-0-0-0-0---0-0---0-0---0-0-0-0-0-0-0--0---------|
|-----------------------------------------------------||-----------------------------------------------------||-----------------------------------------------------||-5-0-0-7-0-0-8-0-0-10-0-0-5/-7-0-7-0-0-10-8-7-8-7----||--------------------------------------------------10-||-----------------------------------------------------|
|------------------------------------------------------||----------------------------------------------10-8----||---------------------------------------10-9-7------10-||-5-0-0-7-0-0-8-0-0-3-0-0------7-10-8-7----------------||-------------------------8-10-------------------------||------------------------------------------------------|
|--------------------------------------------------||--------------------------------------------------||--------------------------------------------------||-5-0-0-7-0-0-8-0-0-3-0-0-5-0-0-7-0-0--------------||--------------------------------------------------||-------------------------------------10-8-7-8-7-5-|
after chorus|------------------------------------||------------------------------------||------------------------------------||------------------------------------||-1--1-1--1-1-1--1-1--1-1-1----------||-1--1-1--1-1-1--1-1--1-1-1--3^------|
pm. . . . . . . . . . .|i THINK IM REALLY OFF ON THIS PATTERN-||-SO YOU MAY HAVE TO FIND IT OUT.------||--------------------------------------|X4|--------------------------------------||-1--1-1-1-1-1--1-1-1-1-1-1-1-1-1-1--1-||-1--1-1-1-1-1--1-1-1-1-1-1-1-1-1-1--1-|
PM. . . . . . . . . . . . . . . . . (on the last time you dont palm mute part of it)Solo A|-17-------------------15-17-18-17-15-------------------17--------18--------||----18----------17-18----------------18---17---15---13---18---------20-----||-------19-17-15--------------------------------------------19-17------21-19||---------------------------------------------------------------------------||---------------------------------------------------------------------------||---------------------------------------------------------------------------|
|--------------------------------------------------||-18---17-20-18--15---13-15-17--15-17-18--17-18-20-||--------------------------------------------------||--------------------------------------------------||--------------------------------------------------||--------------------------------------------------|
|-22-18h20p18-20-18-17-18-17-15-17-15-13-15-17-18-17-18-20-22-||-------------------------------------------------------------||-------------------------------------------------------------||-------------------------------------------------------------||-------------------------------------------------------------||-------------------------------------------------------------|
Verse B|------------------------||------------------------||------------------------||------------------------||-0--000-0-----0-0-0-7-3-||-0--000-0-----0-0-0-7-3-|
|------------------------------------------||------------------------------------------||------------------------------------------||------------------------------------------||-0-000-0-0-0-5-8-7-5------0-000-0-0-0-5-7-||-0-000-0-0-0---------8-7--0-000-0-0-0-5-7-|pm. ... . . . . ... . . .
|-------------------------------------------------------------------||-------------------------------------------------------------------||-------------------------------------------------------------------||-------------------------------------------------------------------||5-555-5-5-5-5-8-7-5-----5-555-5-5--5-7---8-3-333-3-3-3-5-8-7-5-8-7-||5-555-5-5-5---------8-7-5-555-5-5--5-7---8-3-333-3-3-3---------8-7-|
. ... . . . . ... . . ... . . .|---------------------||---------------------||---------------------||-7-00-5-00-3-00-2-00-||---------------------||---------------------|
|------------------------------------------------------||------------------------------------------------------||------------------------------------------------------||------------------------------------------------------||-0-000-0-0-0-0-0-0---------0-000--0-0-0-0-0-0---------||-0-000-0-0-0-0-0-0-777-333-0-000--0-0-0-0-0-0-555-777-|pm. ... . . . . . . ... . . . . .
|---------------------------------------------------------------||---------------------------------------------------------------||---------------------------------------------------------------||-------------------------------------------7-00-5-00-3-00-2-00-||5-555-5-5-5-5-5-5----------3-333-3-3-3-3-3---------------------||5-555-5-5-5-5-5-5--777-888-3-333-3-3-3-3-3---------------------| . ... . . . . . . ... . . . . .
Chorus B|---------------------------------------------------------||---------------------------------------------------------||---------------------------------------------------------||---------------------------------------------------------||-8-8-8-8-8-8-8---8-8---8-8---8-8-8-8-8-8-8---8-8---8-8-5-||-8-8-8-8-8-8-8---8-8---8-8---8-8-8-8-8-8-8---8-8---8-8-5-|
|------------------------------------------------------||------------------------------------------------------||----------------------------------------------/10-9-7-||------------------------------------------------------||-0-0-0-0-0-0-0---0-0---0-0---0-0-0-0-0-0-0--0---------||-0-0-0-0-0-0-0---0-0---0-0---0-0-0-0-0-0-0--0---------|
|-----------------------------------------------------||-----------------------------------------------------||-----------------------------------------------------||-5-0-0-7-0-0-8-0-0-10-0-0-5/-7-0-7-0-0-10-8-7-8-7----||--------------------------------------------------10-||-----------------------------------------------------|
|------------------------------------------------------||----------------------------------------------10-8----||---------------------------------------10-9-7------10-||-5-0-0-7-0-0-8-0-0-3-0-0------7-10-8-7----------------||-------------------------8-10-------------------------||------------------------------------------------------|
|---------------------------------------------------------||---------------------------------------------------------||--------------------------------------------------10-9-7-||-5-0-0-7-0-0-8-0-0-3-0-0-5-0-0-7-0-0---------------------||---------------------------------------------------------||-------------------------------------10-8-7-8-7-5--------|
Solo B|-------------13-15-17-15-13----------------------------------------||----------15----------------17-15-13----15-------17-------18-------||-------14----------------------------15----14-14----14-14----14-14-||----15-------------------------------------------------------------||-17----------------------------------------------------------------||-------------------------------------------------------------------|
|-------------13-15-17-15-13----------13------17-------13-------15-||----------15----------------17-15-13----13-13---13-13----13-13----||-------14---------------------------------------------------------||----15------------------------------------------------------------||-17---------------------------------------------------------------||------------------------------------------------------------------|
|--------------------------------------------------------------------------||--------------------------------------------------------------18-17-------||----------------------------------14-15--17h19p17-15-14----19-------17-17-||-------14----14-15-14-15-17-15-17-----------------------17----------------||-15-17----17--------------------------------------------------------------||--------------------------------------------------------------------------|
|-------------------------------17-15-13--------------------------------------||-----------18-17------------18-------------18-17--15-13-13/-15---------------||-17/-19-19-------19-17/-19--------------19---------------------14-15-14------||------------------------------------------------------------------------15---||--------------------------------------------------------------------------17-||-----------------------------------------------------------------------------|
|----------17-15h17p15-13-12-------||----15-17-------------------15----||-14-------------------------------||----------------------------------||----------------------------------||----------------------------------|
End|-----------------------------------------------------------||-----------------------------------------------------------||-----------------------------------------------------------||-----------------------------------------------------------||-5--5--5--5--8--8--5-8-7-5---5--5--5--5--8--8--5-8-7-5-----||--00-00-00-00-00-00-------8-7-55-55-55-55-55-55-------8-7--|
pm .. .. .. .. .. .. .. .. .. .. .. ..|----------------------------------------------------------------------||----------------------------------------------------------------------||---------------5------------------------------------------------------||-----------------8-7-5------7-5-------------------------------------0-||-5--7--8--10--------------------8-7-5---000000-000-0-000-00000--5-3-0-||--88-88-88--88---------8-7-5----------5-000000-000-0-000-00000------0-|pm .. .. .. .. ...... ... .... .....
Tap to rate this tab
 
# A B C D E F G H I J K L M N O P Q R S T U V W X Y Z