Sting - Shape Of My Heart Acoustic tab

Tabbed by: sebba94
Email: sebba.c.j@hotmail.com

This is the tabs for the acoustic version of "shape of my heart". Im 100% shure 
that this is the right one, but if you find any mistakes please mail me. The intro 
is basically played over and over again, with only a few exeptions.

You can watch the video at: http://www.youtube.com/watch?v=037uSAIahho
Please submit and enjoy! xD




Standard Tuning


Intro:e|--------------|-----------|-------------|-------------|B|--10------10--|--9------9-|---7------7--|---7-------6-|G|--------6-----|-------6---|--------4----|---4----4--4-|D|--------------|-----------|-------------|-------------|A|--9--9--------|--7--7-----|---5--5------|---4--4----4-|E|--------------|-----------|-------------|-------------|
|--------------|-------------|-------------|-------------||--10------10--|---9------9--|---7------7--|---7-------6-||--------7-----|--------6----|--------4----|---4----4--4-||--------------|-------------|-------------|-------------||--9--9--------|---7--7------|---5--5------|---4--4----4-||--------------|-------------|-------------|-------------|
|---------5----|----------------|---------------|---------||-----7-----7--|--5----5------6-|--7-5---2------|---2-----||---4---4------|--2h4--2-2------|--7--7--4--4-2-|---2-----||--------------|-------------6--|---------------|---4-----||--5-----------|-----------4----|--5-----2------|---4-----||--------------|--5----5--------|---------------|---2-----|
1st Verse:
-"He deals the cards as a..."e|--------------|-----------|-------------|-------------|B|--10------10--|--9------9-|---7------7--|---7-------6-|G|--------6-----|-------6---|--------4----|---4----4--4-|D|--------------|-----------|-------------|-------------|A|--9--9--------|--7--7-----|---5--5------|---4--4----4-|E|--------------|-----------|-------------|-------------|
|--------------|-------------|-------------|-------------||--10------10--|---9------9--|---7------7--|---7-------6-||--------7-----|--------6----|--------4----|---4----4--4-||--------------|-------------|-------------|-------------||--9--9--------|---7--7------|---5--5------|---4--4----4-||--------------|-------------|-------------|-------------|
|---------5----|----------------|---------------|---------||-----7-----7--|--5----5------6-|--7-5---2------|---2-----||---4---4------|--2h4--2-2------|--7--7--4--4-2-|---2-----||--------------|-------------6--|---------------|---4-----||--5-----------|-----------4----|--5-----2------|---4-----||--------------|--5----5--------|---------------|---2-----|
2nd Verse:
-"He deals the cards to find..."e|--------------|-----------|-------------|-------------|B|--10------10--|--9------9-|---7------7--|---7-------6-|G|--------6-----|-------6---|--------4----|---4----4--4-|D|--------------|-----------|-------------|-------------|A|--9--9--------|--7--7-----|---5--5------|---4--4----4-|E|--------------|-----------|-------------|-------------|
|--------------|-------------|-------------|-------------||--10------10--|---9------9--|---7------7--|---7-------6-||--------7-----|--------6----|--------4----|---4----4--4-||--------------|-------------|-------------|-------------||--9--9--------|---7--7------|---5--5------|---4--4----4-||--------------|-------------|-------------|-------------|
|---------5----|----------------|---------------|---------||-----7-----7--|--5----5------6-|--7-5---2------|---2-----||---4---4------|--2h4--2-2------|--7--7--4--4-2-|---2-----||--------------|-------------6--|---------------|---4-----||--5-----------|-----------4----|--5-----2------|---4-----||--------------|--5----5--------|---------------|---2-----|
Chorus:
-"I know that the spades..."e|--------------|-----------|-------------|-------------|B|--10------10--|--9------9-|---7------7--|---7-------6-|G|--------6-----|-------6---|--------4----|---4----4--4-|D|--------------|-----------|-------------|-------------|A|--9--9--------|--7--7-----|---5--5------|---4--4----4-|E|--------------|-----------|-------------|-------------|
|--------------|-------------|-------------|-------------||--10------10--|---9------9--|---7------7--|---7-------6-||--------7-----|--------6----|--------4----|---4----4--4-||--------------|-------------|-------------|-------------||--9--9--------|---7--7------|---5--5------|---4--4----4-||--------------|-------------|-------------|-------------|
|---------5----|----------------|---------------|---------||-----7-----7--|--5----5------6-|--7-5---2------|---2-----||---4---4------|--2h4--2-2------|--7--7--4--4-2-|---2-----||--------------|-------------6--|---------------|---4-----||--5-----------|-----------4----|--5-----2------|---4-----||--------------|--5----5--------|---------------|---2-----|
3rd verse:
-"He may play the jack..."e|--------------|-----------|-------------|-------------|B|--10------10--|--9------9-|---7------7--|---7-------6-|G|--------6-----|-------6---|--------4----|---4----4--4-|D|--------------|-----------|-------------|-------------|A|--9--9--------|--7--7-----|---5--5------|---4--4----4-|E|--------------|-----------|-------------|-------------|
|--------------|-------------|-------------|-------------||--10------10--|---9------9--|---7------7--|---7-------6-||--------7-----|--------6----|--------4----|---4----4--4-||--------------|-------------|-------------|-------------||--9--9--------|---7--7------|---5--5------|---4--4----4-||--------------|-------------|-------------|-------------|
|---------5----|----------------|---------------|---------||-----7-----7--|--5----5------6-|--7-5---2------|---2-----||---4---4------|--2h4--2-2------|--7--7--4--4-2-|---2-----||--------------|-------------6--|---------------|---4-----||--5-----------|-----------4----|--5-----2------|---4-----||--------------|--5----5--------|---------------|---2-----|
Chorus:
-"I know that the spades..."e|--------------|-----------|-------------|-------------|B|--10------10--|--9------9-|---7------7--|---7-------6-|G|--------6-----|-------6---|--------4----|---4----4--4-|D|--------------|-----------|-------------|-------------|A|--9--9--------|--7--7-----|---5--5------|---4--4----4-|E|--------------|-----------|-------------|-------------|
|--------------|-------------|-------------|-------------||--10------10--|---9------9--|---7------7--|---7-------6-||--------7-----|--------6----|--------4----|---4----4--4-||--------------|-------------|-------------|-------------||--9--9--------|---7--7------|---5--5------|---4--4----4-||--------------|-------------|-------------|-------------|
|---------5----|----------------|---------------|---------||-----7-----7--|--5----5------6-|--7-5---2------|---2-----||---4---4------|--2h4--2-2------|--7--7--4--4-2-|---2-----||--------------|-------------6--|---------------|---4-----||--5-----------|-----------4----|--5-----2------|---4-----||--------------|--5----5--------|---------------|---2-----|
Bridge:
-"That's not the..."|-----------2--|------------|-------------|------------|-----------||--2--2--3--2--|------------|-------------|------------|-----------||--2--2--2--4--|--9-----9---|--8------8---|--6------6--|--6--5-----||--4--4--0--4--|------7-----|-------6-----|-------4----|--4--4-----||--4--4--0--4--|------------|-------------|------------|-----------||--2--2-----2--|--9--9------|--7--7-------|--5--5------|--4--4-----|
|------------|-------------|------------|-----------||------------|-------------|------------|-----------||--9-----9---|--8------8---|--6------6--|--6--5-----||------7-----|-------6-----|-------4----|--4--4-----||------------|-------------|------------|-----------||--9--9------|--7--7-------|--5--5------|--4--4-----|
______________________________________ | Listen to the song and Find the rythm| |-------------|---------------|--4--4--4-------------|---------------|---------5---|---------------|--4--5--5---5---4---5-||-----6-----6-|-----1----5--6-|--6--6--4---6---6---6-||---4---4-----|---2----6----7-|--6--6--6---7---4---7-||-------------|-------------7-|--6--4--4---7---6-----||--5----------|--0----4-----5-|--4---------5---4-----|
4th Verse:
-"And if i told you..."e|--------------|-----------|-------------|-------------|B|--10------10--|--9------9-|---7------7--|---7-------6-|G|--------6-----|-------6---|--------4----|---4----4--4-|D|--------------|-----------|-------------|-------------|A|--9--9--------|--7--7-----|---5--5------|---4--4----4-|E|--------------|-----------|-------------|-------------|
|--------------|-------------|-------------|-------------||--10------10--|---9------9--|---7------7--|---7-------6-||--------7-----|--------6----|--------4----|---4----4--4-||--------------|-------------|-------------|-------------||--9--9--------|---7--7------|---5--5------|---4--4----4-||--------------|-------------|-------------|-------------|
|---------5----|----------------|---------------|---------||-----7-----7--|--5----5------6-|--7-5---2------|---2-----||---4---4------|--2h4--2-2------|--7--7--4--4-2-|---2-----||--------------|-------------6--|---------------|---4-----||--5-----------|-----------4----|--5-----2------|---4-----||--------------|--5----5--------|---------------|---2-----|
5th Verse:
-"Those who speak..."e|--------------|-----------|-------------|-------------|B|--10------10--|--9------9-|---7------7--|---7-------6-|G|--------6-----|-------6---|--------4----|---4----4--4-|D|--------------|-----------|-------------|-------------|A|--9--9--------|--7--7-----|---5--5------|---4--4----4-|E|--------------|-----------|-------------|-------------|
|--------------|-------------|-------------|-------------||--10------10--|---9------9--|---7------7--|---7-------6-||--------7-----|--------6----|--------4----|---4----4--4-||--------------|-------------|-------------|-------------||--9--9--------|---7--7------|---5--5------|---4--4----4-||--------------|-------------|-------------|-------------|
|---------5----|----------------|---------------|---------||-----7-----7--|--5----5------6-|--7-5---2------|---2-----||---4---4------|--2h4--2-2------|--7--7--4--4-2-|---2-----||--------------|-------------6--|---------------|---4-----||--5-----------|-----------4----|--5-----2------|---4-----||--------------|--5----5--------|---------------|---2-----|
Chorus:-"I know that the spades..."e|--------------|-----------|-------------|-------------|B|--10------10--|--9------9-|---7------7--|---7-------6-|G|--------6-----|-------6---|--------4----|---4----4--4-|D|--------------|-----------|-------------|-------------|A|--9--9--------|--7--7-----|---5--5------|---4--4----4-|E|--------------|-----------|-------------|-------------|
|--------------|-------------|-------------|-------------||--10------10--|---9------9--|---7------7--|---7-------6-||--------7-----|--------6----|--------4----|---4----4--4-||--------------|-------------|-------------|-------------||--9--9--------|---7--7------|---5--5------|---4--4----4-||--------------|-------------|-------------|-------------|
|---------5----|----------------|---------------|---------||-----7-----7--|--5----5------6-|--7-5---2------|---2-----||---4---4------|--2h4--2-2------|--7--7--4--4-2-|---2-----||--------------|-------------6--|---------------|---4-----||--5-----------|-----------4----|--5-----2------|---4-----||--------------|--5----5--------|---------------|---2-----|
|-----------2--|-----------2--||--2--2--3--2--|--2--2--3--2--||--2--2--2--4--|--2--2--2--4--||--4--4--0--4--|--4--4--0--4--||--4--4--0--4--|--4--4--0--4--||--2--2-----2--|--2--2-----2--|
Outro:e|--------------|-----------|-------------|-------------|B|--10------10--|--9------9-|---7------7--|---7-------6-|G|--------6-----|-------6---|--------4----|---4----4--4-|D|--------------|-----------|-------------|-------------|A|--9--9--------|--7--7-----|---5--5------|---4--4----4-|E|--------------|-----------|-------------|-------------|
|------------|-----------|-----------|-------2----||--4-----4---|--2------2-|--2-----2--|---6---2----||------------|-----------|-----------|---4---2----||-------3----|-------2---|-------4---|---6---6----||--2--2------|--0--0-----|-----------|---4---4----||------------|-----------|--4--4-----|-------2----|
Tap to rate this tab
 
# A B C D E F G H I J K L M N O P Q R S T U V W X Y Z